Oops, an error
Loading. Please wait.

Town Called Malice tab

version 2
version 2

Whole song

Interactive

by The Jam
15,457 views 3 this week
no commentswrite comment
1 2 3 4 5
x 5
add to favorites
×
Save as Personal and add changes to this tab that will be seen only by you. Learn more ›
×
You can save this tab as Personal to edit and correct it or add notes. All changes will be seen only by you. Learn more »
launch autoscroll
font size
0
reset
how to read this tab
guitar tuner
edit
Autoscroll
slow
fast
+/-
esc
set tempo
stop
Difficulty
intermediate
its hard to find the right way to play this song but i think i figured it out fairly 
i heard these chords on the acoustic version but theres some extra notes put in to make it 
more like the original.
enjoy.

bass riff(for guitar)
e-------------------------------------------------------------------|
b-------------------------------------------------------------------|
g-------------------------------------------------------------------|
d-------------------------------------------------------------------|
a-------------------------------------------------------------------|
e-5-5-5-0h2-5-5-5-0h2-5-5---------5-5-5-0h2-5-5-5-0h2-5-5-----------|

verse:
"better stop dreamin of the quiet life....."
e-2-2-2--2-2-2-----0-0-0-|
b-2-2-2--2h3-2-----3-3-3-|
g-2-2-2--2-2-2---0-0-0-0-|
d-4-4-4--4-4-4---2-2-2-x-|
a-4-4-4--4-4-4---2-2-2---|
e-2-2-2--2-2-2---0-x-x---|

then after the verse...

"stop apologising" "for the" things you never done.."
e-3-3-3-3-3-3--------x-x-x---2-2-2-2-2-|
b-3-3-3-3-3-3--------x-x-x---2-2-2-2-2-|
g-0-0-0-0-0-0--------x-x-x---2-2-2-2-2-|
d-0-0-0-0-0-0--------x-x-x---4-4-4-4-4-|
a-2-2-2-2-2-2--------x-x-x---4-4-4-4-4-|
e-3-3-3-3-3-3--------x-x-x---2-2-2-2-2-|


"time is short and life is cruel but its up to us to change in a town called malice"

e-----0-0-0-0-0-0-0-0-0-0-0-0----------------|
b-----2-2-2-2-2-2-2-2-2-2-2-2----------------|
g-----2-2-2-2-2-2-2-2-2-2-2-2----------------|
d-----2-2-2-2-2-2-2-2-2-2-2-2----------------|
a-----0-0-0-0-0-0-0-0-0-0-0-0----------------|
e--------------------------------------------|

thats basically it apart from the bridge part later on in the song but i just didnt 
tabbbing it. its along the same lines anyway. hope you think the tab is good let me know 
ya think.

            
            
Suggest correction
Creating personal tab
Creating personal tab
You can edit any tab online and save it as your Personal.

You can edit, replace or remove any tab part or add personal notes – all changes will be seen only by you.

Personal tabs can be accessed anytime from any device, even offline.
Learn more »
comments
print report bad tab
guest
Wanna post a correction for this tab? Suggest correction