Oops, an error
Loading. Please wait.

When Youre Young Bass Tab

version 2
version 2

Whole song

Interactive

714 views 1 this week
no commentswrite comment
1 2 3 4 5
please rate
add to favorites
launch autoscroll
font size
0
reset
guitar tuner
Tab Pro tools
  • play this tab
  • loop segment
  • change instrument
  • show fretboard
  • metronome
×
Best way to learn
"When Youre Young"
Autoscroll
slow
fast
+/-
esc
set tempo
stop
Contributor
THE JAM - WHEN YOU'RE YOUNG

FABULOUS BASS LINE, REALLY ATTACK THOSE LOW NOTES. USE A PICK.
HAVE FUN ;)


G-----------------------------------------------|
D-----------------------------------------------|
A-----------------------------------------------|
E-0205----2--2--0-5----2--2--0-5----2--2--0-----| x1


G-----------------------------------------------|
D---7--7------12---12------9--9--9--------------|
A--5--5--5/-10---10---10/-7--7--7-7--7/---------|
E-----------------------------------------------| x1


G------------------------------------------------|
D------------------------------------------------|
A------------------------------------------------|
E--55--55--22--00--------------------------------| x5


G------------------------------------------------|
D------------------------------------------------|
A--5--5----------7--7---7--7/--------------------|
E---------3--3-----------------------------------| x1


G------------------------------------------------|
D------------------------------------------------|
A------------------------------------------------|
E--55--55--22--00--------------------------------| x3


G------------------------------------------------|
D------------------------------------------------|
A--5--5----------7--7---7--7/--------------------|
E---------3--3-----------------------------------| x1

"But you find out life isn't like that..."
G-----------------------------------------------------------------------------------------|
D-----------------------------------------------------------------------------------------|
A--0--0---7--0-9--0-10-0-12--0-10--0-9-0-7--0-9--0-10-0-12--0-10--0-9-0-7--0-9--0-10-0----|
E-----------------------------------------------------------------------------------------| x1


G------------------------------------------------------------------------|
D-----4-4-----2-2----------------------------7---9-----------------------|
A--5-5---5-4-4---4-2-25-5-2-----------2-2---5-57--7/---------------------|
E----------------------------2-25-5-2------------------------------------| x1


G---------------------------------------------|
D---------------------------------------------|
A---------------------------------------------|
E--5----2--2--0-5----2--2--0-5----2--2--0-----| x1


G------------------------------------------------|
D------------------------------------------------|
A------------------------------------------------|
E--55--55--22--00--------------------------------| x3


G------------------------------------------------|
D------------------------------------------------|
A--5--5----------7--7---7--7/--------------------|
E---------3--3-----------------------------------| x1

"But you find out life isn't like that..."
G-----------------------------------------------------------------------------------------|
D-----------------------------------------------------------------------------------------|
A--0--0---7--0-9--0-10-0-12--0-10--0-9-0-7--0-9--0-10-0-12--0-10--0-9-0-7--0-9--0-10-0----|
E-----------------------------------------------------------------------------------------| x1


G------------------------------------------------------------------------|
D-----4-4-----2-2----------------------------7---9-----------------------|
A--5-5---5-4-4---4-2-25-5-2-----------2-2---5-57--7/---------------------|
E----------------------------2-25-5-2------------------------------------| x1


G---------------------------------------------|
D---------------------------------------------|
A---------------------------------------------|
E--5----2--2--0-5----2--2--0-5----2--2--0-5---| x1


G-------------------|
D-------------------|
A--0----12/---------|    with distortion.
E-------------------| x1


G---------------------------------------|
D---------------------------------------|
A---------------------------------------|
E-020--55--55--22--00--55--55--55--55---| x1


G---------------------------------------|
D---------------------------------------|
A---------------------------------------|
E--55--55--22--00--55--55--55--55-------| x1


G---------------------------------------|
D---------------------------------------|
A---------------------------------------|
E--55--55--22--00-----------------------| x1


G---------------------------------------|
D---------------------------------------|
A---------------------------------------|
E--5-(x32)------------------------------| x1


G----------------------------------|
D-----4-4-----2-2------------------|
A--5-5---5-4-4---4-2-25-5-2--0-0---|
E----------------------------------| x2


G---------------------------------------|
D---------------------------------------|
A--5--5---4--4---2--2------7-7----7-7---|
E-----------------------00-----00-------| x1



G---------------------------------------|
D---------------------------------------|
A---------------------------------------|
E--5----2--2--0-------------------------| ...until fade.
comments
We did not receive enough feedback on this tab! Please rate:
print report bad tab
1 2 3 4 5
I want to post or [tab]
guest
You may want to rate the tab now too:
select rating
Please do not post tabs as comments. Select "correction" instead!