Oops, an error
Loading. Please wait.

I Walk Alone Bass Tab

25 views 1 this week
no commentswrite comment
1 2 3 4 5
3 more votes to show rating
add to favorites
launch autoscroll
font size
0
reset
guitar tuner
Autoscroll
slow
fast
+/-
esc
set tempo
stop
Help us to improve Ultimate-Guitar.com Take our survey!
×
Author
Difficulty
novice
About this tab version
This tab covers all variations of main riff except particular endings. Was this info helpful? Yes No
The bass part is based on one badass riff with two variations during. Also here is bridge part.
So watch for changes, play variations and bridge whenever they come (I included timecodes in the brackets).

[Main riff]
G|----------------------------------------------------|----------------------------------------------------|
D|----------------------------------------------------|----------------------------------------------------|
A|-----------------------------------7s---------------|-----------------------------------3--------5-------|
E|--5-----------5-----------5-------------------------|--------1.----1-----------1-------------------------|

[Bridge] [01:22-01:26][02:23-02:27][04:23-04:28]
G|----------------------------|----------------------------|
D|----------------------------|----------------------------|
A|----------------------------|----------------------------|
E|--2--2--2--2--2--2--2--2----|--3--3--3--3--4--4--4--4----|

[Main riff 1st variation] [00:49-01:04][01:51-02:05]
G|----------------------------------------------------|----------------------------------------------------|
D|----------------------------------------------------|----------------------------------------------------|
A|-----------------------------------4s---------------|-----------------------------------3--------5-------|
E|--5-----------5-----------5-------------------------|--------1.----1-----------1-------------------------|

[Main riff 2nd variation] [01:42-01:50][02:28-03:00][03:32-04:22]
G|--------------------------------7-----------9-------|----------------------------------------------------|
D|----------------------------------------------------|----------------------------------------------------|
A|-----------------------0s-5-----------7-------------|-----------------------------------3--------5-------|
E|--5-----------5-------------------------------------|--------1.----1-----------1-------------------------|

[Bass Solo] [03:01-03:17]
G|--------------------------|--------------------------|--------------------------|--------------------------|
D|--7-----------------10----|--------------------------|--------------------------|--------------------------|
A|--------------------------|--8-----------------------|--7-----------------10----|--------------------------|
E|--------------------------|--------------------------|--------------------------|--8-----------------------|

G|--------------------------|--------------------------|--------------------------|--------------------------|
D|--------------------------|--------------------------|--------------------------|--------------------------|
A|--------------------------|--------------------------|--------------------------|--3-----------2-----------|
E|--5-----------------8-----|--1-----------------------|--0-----------------3-----|--------------------------|
Suggest correction
Give kudos to tab author, rate the tab!
1 2 3 4 5
comments
print report bad tab
guest
You may want to rate the tab now too:
select rating
Wanna post a correction for this tab? Suggest correction