Oops, an error
Loading. Please wait.

Face Like Thunder bass

301 views 1 this week
no commentswrite comment
1 2 3 4 5
3 more votes to show rating
add to favorites
×
Save as Personal and add changes to this tab that will be seen only by you. Learn more ›
×
You can save this tab as Personal to edit and correct it or add notes. All changes will be seen only by you. Learn more »
launch autoscroll
font size
0
reset
guitar tuner
edit
Autoscroll
slow
fast
+/-
esc
set tempo
stop
About this tab version
The original bassline has been followed as much possible. The timing of the notes is also taken into account. Sometimes it's a bit hard to hear what is drums and what is bass when listening to the song, because of all the synth sounds. Was this info helpful? Yes No
FACE LIKE THUNDER - The Japanese House
Tabbed by: ~Technology.
Tuning: DGCF

[Intro]
No bass

[Verse]
  1 e 2 e 3 e 4 e 1 e 2 e 3 e 4 e 1 e 2 e 3 e 4 e 1 e 2 e 3 e 4 e 
F|----------------------------------------------------------------|
C|----------------5-----------------------------------------------|
G|5---------------------------------------------------------------| x2
D|--------------------------------7-------------------------------|

  1 e 2 e 3 e 4 e 1 e 2 e 3 e 4 e 1 e 2 e 3 e 4 e 1 e 2 e 3 e 4 e
F|----------------------------------------------------------------|
C|--------------xx5---------5-------------------------------------|
G|5---------5-----------------------------------------------------| x2
D|------------------------------xx7---------7---xx7---------7---xx|

[Chorus]
  1 e 2 e 3 e 4 e 1 e 2 e 3 e 4 e 1 e 2 e 3 e 4 e 1 e 2 e 3 e 4 e
F|----------------------------------------------------------------|  \
C|----------------------------------------------------------------|   \
G|----------------2-----------------------------------------5-5---|    |
D|0-----x0------35------3---x-5-----5---x5------xx--5---x5--------|    |
                                                                       |
  1 e 2 e 3 e 4 e 1 e 2 e 3 e 4 e 1 e 2 e 3 e 4 e 1 e 2 e 3 e 4 e       >; x2
F|----------------------------------------------------------------|    |
C|----------------------------------------------------------------|    |        
G|----------------2-----4---x-5-----------------------------------|   /
D|0-----x0------35----------------3-----3-------xx3-----x3--------|  /

[Verse]
  1 e 2 e 3 e 4 e 1 e 2 e 3 e 4 e 1 e 2 e 3 e 4 e 1 e 2 e 3 e 4 e 
F|----------------------------------------------------------------|
C|----------------5-----------------------------------------------|
G|5---------------------------------------------------------------| x2
D|--------------------------------7-------------------------------|

  1 e 2 e 3 e 4 e 1 e 2 e 3 e 4 e 1 e 2 e 3 e 4 e 1 e 2 e 3 e 4 e
F|----------------------------------------------------------------|
C|--------------xx5---------5-------------------------------------|
G|5---------5-----------------------------------------------------| x2
D|------------------------------xx7---------7---xx7---------7---xx|

[Chorus]
  1 e 2 e 3 e 4 e 1 e 2 e 3 e 4 e 1 e 2 e 3 e 4 e 1 e 2 e 3 e 4 e
F|----------------------------------------------------------------|  \
C|----------------------------------------------------------------|   \
G|----------------2-----------------------------------------5-5---|    |
D|0-----x0------35------3---x-5-----5---x5------xx--5---x5--------|    |
                                                                       |
  1 e 2 e 3 e 4 e 1 e 2 e 3 e 4 e 1 e 2 e 3 e 4 e 1 e 2 e 3 e 4 e       > x2
F|----------------------------------------------------------------|    |
C|----------------------------------------------------------------|    |        
G|----------------2-----4---x-5-----------------------------------|   /
D|0-----x0------35----------------3-----3-------xx3-----x3--------|  /

[Interlude]
No bass

[Bridge]
  1 e 2 e 3 e 4 e 1 e 2 e 3 e 4 e 1 e 2 e 3 e 4 e 1 e 2 e 3 e 4 e
F|----------------------------------------------------------------|  \
C|------------------------------------------------------------4---|   \
G|----------5-7---------------4-5-7-----7---5---------------5-----|    |
D|3-----3-------5-5-----5---7-------------------5-------5---------|    |
                                                                       |
  1 e 2 e 3 e 4 e 1 e 2 e 3 e 4 e 1 e 2 e 3 e 4 e 1 e 2 e 3 e 4 e       > x2
F|----------------------------------------------------------------|    |
C|------------------------------------------------------------4---|    |
G|----------5-7-------------4-5-7-----------5---------------5-----|   /
D|3-----3-------5-5-----5-7---------------------5-------5---------|  /

[Chorus]
  1 e 2 e 3 e 4 e 1 e 2 e 3 e 4 e 1 e 2 e 3 e 4 e 1 e 2 e 3 e 4 e
F|----------------------------------------------------------------|  \
C|----------------------------------------------------------------|   \
G|----------------2-----------------------------------------5-5---|    |
D|0-----x0------35------3---x-5-----5---x5------xx--5---x5--------|    |
                                                                       |
  1 e 2 e 3 e 4 e 1 e 2 e 3 e 4 e 1 e 2 e 3 e 4 e 1 e 2 e 3 e 4 e       > x2
F|----------------------------------------------------------------|    |
C|----------------------------------------------------------------|    |        
G|----------------2-----4---x-5-----------------------------------|   /
D|0-----x0------35----------------3-----3-------xx3-----x3--------|  /

[Outro]
No bass

************************************

| x  Dead note

************************************

            
            
Suggest correction
Creating personal tab
Creating personal tab
You can edit any tab online and save it as your Personal.

You can edit, replace or remove any tab part or add personal notes – all changes will be seen only by you.

Personal tabs can be accessed anytime from any device, even offline.
Learn more »
Give kudos to tab author, rate the tab!
1 2 3 4 5
comments
print report bad tab
guest
You may want to rate the tab now too:
select rating
Wanna post a correction for this tab? Suggest correction