Oops, an error
Loading. Please wait.

Still tab

469 views 33 this week
2 commentsread comments
1 2 3 4 5
x 3
add to favorites
×
Save as Personal and add changes to this tab that will be seen only by you. Learn more ›
×
You can save this tab as Personal to edit and correct it or add notes. All changes will be seen only by you. Learn more »
launch autoscroll
font size
0
reset
how to read this tab
guitar tuner
edit
Autoscroll
slow
fast
+/-
esc
set tempo
stop
Author
Difficulty
About this tab version
This is a tabbed solo-electric-guitar performance of this song by Amber that you can find here (https://www.youtube.com/watch?v=AZtYHoWRvco). Some specific riffs she plays on the Intro and Verse are tabbed but for the majority of the song she just fingerpicks the chords, nothing too difficult. Find a pattern that suits you. The Am7 sounds good but might not be perfect so if you have any suggestions leave a comment. She uses 2 or 3 different fingerings for some chords hence the C, C(2), C(3) for example. Was this info helpful? Yes No
[Intro]
    C           B/G         C            C              C          B/G
e|-----------|-----------|-------------|--------------|----------|----------|
B|--------1--|-----3-----|-------------|-----0h1------|-------1--|-----3----|
G|------0--0-|----0-0----|--------0--2p|0--------0----|-----0--0-|----0-----|
D|---0h2-----|---0---0---|---0h2-------|--2p0------2p0|--0h2-----|---0------|
A|--3--------|--2--------|--3---3------|--------------|-3--------|--2-------|
E|-----------|-----------|-------------|--------------|----------|----------|

[Verse 1]
   C       (hold C)   Am7      B/G    C            C              Am7       B/G
e|--------|--------|--------|-------|------------|--------------|----------|-----------|
B|--------|--------|---1----|---3---|------------|-----0h1------|----1-----|----3------|
G|--0-----|--0-----|---0----|---0---|-------0--2p|0--------0----|---0-0-0--|---0-0-----|
D|--2-----|--2-----|---2----|---0---|---0h2------|--2p0------2p0|--2---2---|--0--------|
A|--3-----|--3-----|---0----|---2---|--3---3-----|--------------|-0--------|-2---------|
E|--------|--------|--------|-------|------------|--------------|----------|-----------|

  C        C        Am7       B/G     Em7    Em7     D        D       
e|--------|--------|--------|-------|-------|------|-------|--------|
B|-(1)----|-(1)----|--1-----|--3----|--8----|--8---|---7---|---7----|
G|--0-----|--0-----|--0-----|--0----|--9----|--9---|---7---|---7----|
D|--2-----|--2-----|--2-----|--0----|-------|------|---7---|---7----|
A|--3-----|--3-----|--0-----|--2----|--7----|--7---|---5---|---5----|
E|--------|--------|--------|-------|-------|------|-------|--------|
   she just fingerpicks the chords from now on, find a pattern that suits you
  
 B/G(2)     B/G(2)   C(2)    C(2)   B/G(2) B/G(2)  C     C      
e|--------|--------|-------|------|------|-------|------|-------|
B|--3-----|--3-----|---5---|--5---|--3---|--3----|--(1)-|--(1)--|
G|--4-----|--4-----|---5---|--5---|--4---|--4----|---0--|---0---|
D|--5-----|--5-----|---5---|--5---|--5---|--5----|---2--|---2---|
A|--2-----|--2-----|---3---|--3---|--2---|--2----|---3--|---3---|
E|--------|--------|-------|------|------|-------|------|-------|

  Am7    B/G    C(2)     C(2)
e|------|-----|--------|-----|
B|---1--|--3--|---5----|--5--|
G|---0--|--0--|---5----|--5--|
D|---2--|--0--|---5----|--5--|
A|---0--|--2--|---3----|--3--|
E|------|-----|--------|-----|

[Chorus 1] 
fingerpick the chords
   G     D(2)    C(3)  G       D(2)   C(3)   C(3)   
e|------|------|-----|-------|------|------|------|
B|--12--|--10--|--8--|--12---|--10--|--8---|--8---|
G|--12--|--11--|--9--|--12---|--11--|--9---|--9---|
D|--12--|--12--|--10-|--12---|--12--|--10--|--10--|
A|--10--|------|-----|--10---|------|------|------|
E|------|--10--|--8--|-------|--10--|--8---|--8---|

   G      D(2)    C(3)   G      D(2)  C(3)    C(3)
e|------|-------|------|------|------|------|------|
B|--12--|---10--|--8---|--12--|--10--|--8---|--8---|
G|--12--|---11--|--9---|--12--|--11--|--9---|--9---|
D|--12--|---12--|--10--|--12--|--12--|--10--|--10--|
A|--10--|-------|------|--10--|------|------|------|
E|------|---10--|--8---|------|--10--|--8---|--8---|

[Verse 2] 
same as verse 1
   C       (hold C)   Am7      B/G    C            C              Am7       B/G
e|--------|--------|--------|-------|------------|--------------|----------|-----------|
B|--------|--------|---1----|---3---|------------|-----0h1------|----1-----|----3------|
G|--0-----|--0-----|---0----|---0---|-------0--2p|0--------0----|---0-0-0--|---0-0-----|
D|--2-----|--2-----|---2----|---0---|---0h2------|--2p0------2p0|--2---2---|--0--------|
A|--3-----|--3-----|---0----|---2---|--3---3-----|--------------|-0--------|-2---------|
E|--------|--------|--------|-------|------------|--------------|----------|-----------|

  C        C        Am7       B/G     Em7    Em7     D        D       
e|--------|--------|--------|-------|-------|------|-------|--------|
B|-(1)----|-(1)----|--1-----|--3----|--8----|--8---|---7---|---7----|
G|--0-----|--0-----|--0-----|--0----|--9----|--9---|---7---|---7----|
D|--2-----|--2-----|--2-----|--0----|-------|------|---7---|---7----|
A|--3-----|--3-----|--0-----|--2----|--7----|--7---|---5---|---5----|
E|--------|--------|--------|-------|-------|------|-------|--------|
   
  
 B/G(2)     B/G(2)   C(2)    C(2)   B/G(2) B/G(2)  C     C      
e|--------|--------|-------|------|------|-------|------|-------|
B|--3-----|--3-----|---5---|--5---|--3---|--3----|--(1)-|--(1)--|
G|--4-----|--4-----|---5---|--5---|--4---|--4----|---0--|---0---|
D|--5-----|--5-----|---5---|--5---|--5---|--5----|---2--|---2---|
A|--2-----|--2-----|---3---|--3---|--2---|--2----|---3--|---3---|
E|--------|--------|-------|------|------|-------|------|-------|

  Am7    B/G    C(2)     C(2)
e|------|-----|--------|-----|
B|---1--|--3--|---5----|--5--|
G|---0--|--0--|---5----|--5--|
D|---2--|--0--|---5----|--5--|
A|---0--|--2--|---3----|--3--|
E|------|-----|--------|-----|

[Chorus 2] 
same as chorus 1, fingerpick the chords
   G     D(2)    C(3)  G       D(2)   C(3)   C(3)   
e|------|------|-----|-------|------|------|------|
B|--12--|--10--|--8--|--12---|--10--|--8---|--8---|
G|--12--|--11--|--9--|--12---|--11--|--9---|--9---|
D|--12--|--12--|--10-|--12---|--12--|--10--|--10--|
A|--10--|------|-----|--10---|------|------|------|
E|------|--10--|--8--|-------|--10--|--8---|--8---|

   G      D(2)    C(3)   G      D(2)  C(3)    C(3)
e|------|-------|------|------|------|------|------|
B|--12--|---10--|--8---|--12--|--10--|--8---|--8---|
G|--12--|---11--|--9---|--12--|--11--|--9---|--9---|
D|--12--|---12--|--10--|--12--|--12--|--10--|--10--|
A|--10--|-------|------|--10--|------|------|------|
E|------|---10--|--8---|------|--10--|--8---|--8---|

[Outro] 
"you kept so still..." same as chorus
   G     D(2)    C(3)  G       D(2)   C(3)   C(3)   
e|------|------|-----|-------|------|------|------|
B|--12--|--10--|--8--|--12---|--10--|--8---|--8---|
G|--12--|--11--|--9--|--12---|--11--|--9---|--9---|
D|--12--|--12--|--10-|--12---|--12--|--10--|--10--|
A|--10--|------|-----|--10---|------|------|------|
E|------|--10--|--8--|-------|--10--|--8---|--8---|

   G      D(2)    C(3)   G      D(2)  C(3)    C(3)
e|------|-------|------|------|------|------|------|
B|--12--|---10--|--8---|--12--|--10--|--8---|--8---|
G|--12--|---11--|--9---|--12--|--11--|--9---|--9---|
D|--12--|---12--|--10--|--12--|--12--|--10--|--10--|
A|--10--|-------|------|--10--|------|------|------|
E|------|---10--|--8---|------|--10--|--8---|--8---|

************************************

| h   Hammer-on
| p   Pull-off

************************************

            
            
Suggest correction
Creating personal tab
Creating personal tab
You can edit any tab online and save it as your Personal.

You can edit, replace or remove any tab part or add personal notes – all changes will be seen only by you.

Personal tabs can be accessed anytime from any device, even offline.
Learn more »
Give kudos to tab author, rate the tab!
1 2 3 4 5
comments
print report bad tab
2 comments total.
0 reply
noelle3 10 May 01, 2017 12:48 PM

THANK YOU SO MUCH FOR THIS 🙏🏻🙏🏻 please post a tab for the 909 in studio version of face like thunder if you happen to know the tabs to that one too 🙏🏻

0 reply
lydou96 32 May 05, 2017 01:22 PM

Hey thanks! I've been looking into that a little bit. If I have time to tab it I'll post it here.

guest
You may want to rate the tab now too:
select rating
Wanna post a correction for this tab? Suggest correction