Oops, an error
Loading. Please wait.

Indescribable tab

103 views 3 this week
5 commentsread comments
1 2 3 4 5
x 6
add to favorites
×
Save as Personal and add changes to this tab that will be seen only by you. Learn more ›
×
You can save this tab as Personal to edit and correct it or add notes. All changes will be seen only by you. Learn more »
launch autoscroll
font size
0
reset
how to read this tab
guitar tuner
edit
Autoscroll
slow
fast
+/-
esc
set tempo
stop
Author
Difficulty
Tabbed by: Joshua Garcia (joshuag523@aol.com)

Tabs for the song: Indescribable by The Jay Seeney Band
Please rate and let me know if you have any corrections. Thank you.


Tuning: Standard (E A D G B E)


[Intro]
Guitar 1:
E||------------------------------------------------------|
B||--3-3-3-3-3-3-3-3-3-3-3-3-3-3-3-3---------------------|
G||--0-0-0-0-0-0-0-0-0-0-0-0-0-0-0-0-2-2-2-2-2-2-2-2-2~--|
D||--2-2-2-2-2-2-2-2-2-2-2-2-2-2-2-2-3-3-3-3-3-3-3-3-3~--|
A||--3-3-3-3-3-3-3-3-3-3-3-3-3-3-3-3-3-3-3-3-3-3-3-3-3~--|
E||----------------------------------1-1-1-1-1-1-1-1-1~--|


Guitar 2:
E||------------------------------------------------------|
B||------------------------------------------------------|
G||--5-5-5-5-5-5-5-5-5-5-5-5-5-5-5-5---------------------|
D||--5-5-5-5-5-5-5-5-5-5-5-5-5-5-5-5-3-3-3-3-3-3-3-3-3~--|
A||--3-3-3-3-3-3-3-3-3-3-3-3-3-3-3-3-3-3-3-3-3-3-3-3-3~--|
E||----------------------------------1-1-1-1-1-1-1-1-1~--|


Guitar 3:
E||-------0---------0-------0--0------0---------0------0-0--|
B||-------1---------1-------1--1------1---------1------1-1--|
G||--0----0----0----0----0--0--0-0----0----0----0----0-0-0--|
D||--2---------2---------2-------2---------2---------2------|
A||--3---------3---------3-------3---------3---------3------|
E||---------------------------------------------------------|


E||-------0---------0-------0--0-----|
B||-------1---------1-------1--1-----|
G||--0----0----0----0----0--0--0-0~--|
D||--x---------x---------x-------x---|
A||--3---------3---------3-------3~--|
E||--1---------1---------1-------1~--|



[Verse]
Guitar 1:
E||-------0---------0-------0--0------0---------0------0-0--|
B||-------1---------1-------1--1------1---------1------1-1--|
G||--0----0----0----0----0--0--0-0----0----0----0----0-0-0--|
D||--2---------2---------2-------2---------2---------2------|
A||--3---------3---------3-------3---------3---------3------|
E||---------------------------------------------------------|


E||-------0---------0-------0--0------0---------0------0-0--|
B||-------1---------1-------1--1------1---------1------1-1--|
G||--0----0----0----0----0--0--0-0----0----0----0----0-0-0--|
D||--x---------x---------x-------x---------x---------x------| x2
A||--3---------3---------3-------3---------3---------3------|
E||--1---------1---------1-------1---------1---------1------|


Guitar 2:
E||-----------------------------------------------------|
B||--3---------3-----------------3---------3------------|
G||--0---------0-----------------0---------0------------|
D||--2---------2-----------------2---------2------------|
A||--3---------3-----------------3---------3------------|
E||-----------------------------------------------------|


E||-----------------------------------------------------|
B||-----------------------------------------------------|
G||--2---------2-----------------2---------2------------|
D||--3---------3-----------------3---------3------------| x2
A||--3---------3-----------------3---------3------------|
E||--1---------1-----------------1---------1------------|



[Pre-Chorus]
Guitar 1:
E||--3~--------------------------1~-----------|
B||--3~--------------------------1~-----------|
G||--0~--------------------------2~-----------|
D||--0~--------------------------3~-----------| x2
A||--2~--------------------------3~-----------|
E||--3~--------------------------1~-----------|


Guitar 2:
E||-------------------------------------------|
B||-------------------------------------------|
G||--4---------4-----------------2---------2--|
D||--5---------5-----------------3---------3--| x2
A||--5---------5-----------------3---------3--|
E||--3---------3-----------------1---------1--|



[Chorus]
Guitar 1:
E||-------------------------------------------------------------------|
B||--3-3-3-3-3-3-3-3-3-3-3-3-3-3-3-3----------------------------------|
G||--0-0-0-0-0-0-0-0-0-0-0-0-0-0-0-0-2-2-2-2-2-2-2-2-2-2-2-2-2-2-2-2--|
D||--2-2-2-2-2-2-2-2-2-2-2-2-2-2-2-2-3-3-3-3-3-3-3-3-3-3-3-3-3-3-3-3--| x2
A||--3-3-3-3-3-3-3-3-3-3-3-3-3-3-3-3-3-3-3-3-3-3-3-3-3-3-3-3-3-3-3-3--|
E||----------------------------------1-1-1-1-1-1-1-1-1-1-1-1-1-1-1-1--|


Guitar 2:
E||-------------------------------------------------------------------|
B||-------------------------------------------------------------------|
G||--5-5-5-5-5-5-5-5-5-5-5-5-5-5-5-5----------------------------------|
D||--5-5-5-5-5-5-5-5-5-5-5-5-5-5-5-5-3-3-3-3-3-3-3-3-3-3-3-3-3-3-3-3--| x2
A||--3-3-3-3-3-3-3-3-3-3-3-3-3-3-3-3-3-3-3-3-3-3-3-3-3-3-3-3-3-3-3-3--|
E||----------------------------------1-1-1-1-1-1-1-1-1-1-1-1-1-1-1-1--|


Guitar 3:
E||-------0---------0-------0--0------0---------0------0-0--|
B||-------1---------1-------1--1------1---------1------1-1--|
G||--0----0----0----0----0--0--0-0----0----0----0----0-0-0--|
D||--2---------2---------2-------2---------2---------2------|
A||--3---------3---------3-------3---------3---------3------|
E||---------------------------------------------------------|


E||-------0---------0-------0--0------0---------0------0-0--|
B||-------1---------1-------1--1------1---------1------1-1--|
G||--0----0----0----0----0--0--0-0----0----0----0----0-0-0--|
D||--x---------x---------x-------x---------x---------x------| x2
A||--3---------3---------3-------3---------3---------3------|
E||--1---------1---------1-------1---------1---------1------|



Guitar 1/2:
E||--5-5-5-5-5-5-5-5-3-3-3-3-3-3-3-3-1-1-1-1-1-1-1-1-3~--|
B||--5-5-5-5-5-5-5-5-3-3-3-3-3-3-3-3-1-1-1-1-1-1-1-1-3~--|
G||--5-5-5-5-5-5-5-5-4-4-4-4-4-4-4-4-2-2-2-2-2-2-2-2-4~--|
D||--7-7-7-7-7-7-7-7-5-5-5-5-5-5-5-5-3-3-3-3-3-3-3-3-5~--|
A||--7-7-7-7-7-7-7-7-5-5-5-5-5-5-5-5-3-3-3-3-3-3-3-3-5~--|
E||--5-5-5-5-5-5-5-5-3-3-3-3-3-3-3-3-1-1-1-1-1-1-1-1-3~--|


E||--1~--|
B||--1~--|
G||--2~--|
D||--3~--|
A||--3~--|
E||--1~--|



[Verse]
Guitar 1:
E||-------0---------0-------0--0------0---------0------0-0--|
B||-------1---------1-------1--1------1---------1------1-1--|
G||--0----0----0----0----0--0--0-0----0----0----0----0-0-0--|
D||--2---------2---------2-------2---------2---------2------|
A||--3---------3---------3-------3---------3---------3------|
E||---------------------------------------------------------|


E||-------0---------0-------0--0------0---------0------0-0--|
B||-------1---------1-------1--1------1---------1------1-1--|
G||--0----0----0----0----0--0--0-0----0----0----0----0-0-0--|
D||--x---------x---------x-------x---------x---------x------| x2
A||--3---------3---------3-------3---------3---------3------|
E||--1---------1---------1-------1---------1---------1------|


Guitar 2:
E||-----------------------------------------------------|
B||--3---------3-----------------3---------3------------|
G||--0---------0-----------------0---------0------------|
D||--2---------2-----------------2---------2------------|
A||--3---------3-----------------3---------3------------|
E||-----------------------------------------------------|


E||-----------------------------------------------------|
B||-----------------------------------------------------|
G||--2---------2-----------------2---------2------------|
D||--3---------3-----------------3---------3------------| x2
A||--3---------3-----------------3---------3------------|
E||--1---------1-----------------1---------1------------|


Guitar 3:
E||----------------------|--10----12-8~--|
B||----------------------|---------------|
G||--9----/10\9----7/9~--|---------------|
D||----------------------|---------------|
A||----------------------|---------------|
E||----------------------|---------------|



[Chorus]
Guitar 1:
E||-------------------------------------------------------------------|
B||--3-3-3-3-3-3-3-3-3-3-3-3-3-3-3-3----------------------------------|
G||--0-0-0-0-0-0-0-0-0-0-0-0-0-0-0-0-2-2-2-2-2-2-2-2-2-2-2-2-2-2-2-2--|
D||--2-2-2-2-2-2-2-2-2-2-2-2-2-2-2-2-3-3-3-3-3-3-3-3-3-3-3-3-3-3-3-3--| x2
A||--3-3-3-3-3-3-3-3-3-3-3-3-3-3-3-3-3-3-3-3-3-3-3-3-3-3-3-3-3-3-3-3--|
E||----------------------------------1-1-1-1-1-1-1-1-1-1-1-1-1-1-1-1--|


Guitar 2:
E||-------------------------------------------------------------------|
B||-------------------------------------------------------------------|
G||--5-5-5-5-5-5-5-5-5-5-5-5-5-5-5-5----------------------------------|
D||--5-5-5-5-5-5-5-5-5-5-5-5-5-5-5-5-3-3-3-3-3-3-3-3-3-3-3-3-3-3-3-3--| x2
A||--3-3-3-3-3-3-3-3-3-3-3-3-3-3-3-3-3-3-3-3-3-3-3-3-3-3-3-3-3-3-3-3--|
E||----------------------------------1-1-1-1-1-1-1-1-1-1-1-1-1-1-1-1--|


Guitar 3:
E||-------0---------0-------0--0------0---------0------0-0--|
B||-------1---------1-------1--1------1---------1------1-1--|
G||--0----0----0----0----0--0--0-0----0----0----0----0-0-0--|
D||--2---------2---------2-------2---------2---------2------|
A||--3---------3---------3-------3---------3---------3------|
E||---------------------------------------------------------|


E||-------0---------0-------0--0------0---------0------0-0--|
B||-------1---------1-------1--1------1---------1------1-1--|
G||--0----0----0----0----0--0--0-0----0----0----0----0-0-0--|
D||--x---------x---------x-------x---------x---------x------| x2
A||--3---------3---------3-------3---------3---------3------|
E||--1---------1---------1-------1---------1---------1------|



Guitar 1/2:
E||--5-5-5-5-5-5-5-5-3-3-3-3-3-3-3-3-1-1-1-1-1-1-1-1-3-3-3-3-3-3-3-3--|
B||--5-5-5-5-5-5-5-5-3-3-3-3-3-3-3-3-1-1-1-1-1-1-1-1-3-3-3-3-3-3-3-3--|
G||--5-5-5-5-5-5-5-5-4-4-4-4-4-4-4-4-2-2-2-2-2-2-2-2-4-4-4-4-4-4-4-4--|
D||--7-7-7-7-7-7-7-7-5-5-5-5-5-5-5-5-3-3-3-3-3-3-3-3-5-5-5-5-5-5-5-5--|
A||--7-7-7-7-7-7-7-7-5-5-5-5-5-5-5-5-3-3-3-3-3-3-3-3-5-5-5-5-5-5-5-5--|
E||--5-5-5-5-5-5-5-5-3-3-3-3-3-3-3-3-1-1-1-1-1-1-1-1-3-3-3-3-3-3-3-3--|



[Bridge]
Guitar 1/2:
E||--3-3-3-3-3-3-3-3-3-3-3-3-3-3-3-3-5-5-5-5-5-5-5-5-5-5-5-5-5-5-5-5-3~--|
B||--3-3-3-3-3-3-3-3-3-3-3-3-3-3-3-3-5-5-5-5-5-5-5-5-5-5-5-5-5-5-5-5-3~--|
G||--2-2-2-2-2-2-2-2-2-2-2-2-2-2-2-2-4-4-4-4-4-4-4-4-4-4-4-4-4-4-4-4-0~--|
D||--3-3-3-3-3-3-3-3-3-3-3-3-3-3-3-3-5-5-5-5-5-5-5-5-5-5-5-5-5-5-5-5-0~--|
A||--3-3-3-3-3-3-3-3-3-3-3-3-3-3-3-3-5-5-5-5-5-5-5-5-5-5-5-5-5-5-5-5-2~--|
E||--1-1-1-1-1-1-1-1-1-1-1-1-1-1-1-1-3-3-3-3-3-3-3-3-3-3-3-3-3-3-3-3-3~--|



[Chorus]
Guitar 1:
E||-------------------------------------------------------------------|
B||--3-3-3-3-3-3-3-3-3-3-3-3-3-3-3-3----------------------------------|
G||--0-0-0-0-0-0-0-0-0-0-0-0-0-0-0-0-2-2-2-2-2-2-2-2-2-2-2-2-2-2-2-2--|
D||--2-2-2-2-2-2-2-2-2-2-2-2-2-2-2-2-3-3-3-3-3-3-3-3-3-3-3-3-3-3-3-3--| x2
A||--3-3-3-3-3-3-3-3-3-3-3-3-3-3-3-3-3-3-3-3-3-3-3-3-3-3-3-3-3-3-3-3--|
E||----------------------------------1-1-1-1-1-1-1-1-1-1-1-1-1-1-1-1--|


Guitar 2:
E||-------------------------------------------------------------------|
B||-------------------------------------------------------------------|
G||--5-5-5-5-5-5-5-5-5-5-5-5-5-5-5-5----------------------------------|
D||--5-5-5-5-5-5-5-5-5-5-5-5-5-5-5-5-3-3-3-3-3-3-3-3-3-3-3-3-3-3-3-3--| x2
A||--3-3-3-3-3-3-3-3-3-3-3-3-3-3-3-3-3-3-3-3-3-3-3-3-3-3-3-3-3-3-3-3--|
E||----------------------------------1-1-1-1-1-1-1-1-1-1-1-1-1-1-1-1--|


Guitar 3:
E||-------0---------0-------0--0------0---------0------0-0--|
B||-------1---------1-------1--1------1---------1------1-1--|
G||--0----0----0----0----0--0--0-0----0----0----0----0-0-0--|
D||--2---------2---------2-------2---------2---------2------|
A||--3---------3---------3-------3---------3---------3------|
E||---------------------------------------------------------|


E||-------0---------0-------0--0------0---------0------0-0--|
B||-------1---------1-------1--1------1---------1------1-1--|
G||--0----0----0----0----0--0--0-0----0----0----0----0-0-0--|
D||--x---------x---------x-------x---------x---------x------| x2
A||--3---------3---------3-------3---------3---------3------|
E||--1---------1---------1-------1---------1---------1------|



Guitar 1/2:
E||--5-5-5-5-5-5-5-5-3-3-3-3-3-3-3-3-1-1-1-1-1-1-1-1-1-1-1-1-1-1-1-1--|
B||--5-5-5-5-5-5-5-5-3-3-3-3-3-3-3-3-1-1-1-1-1-1-1-1-1-1-1-1-1-1-1-1--|
G||--5-5-5-5-5-5-5-5-4-4-4-4-4-4-4-4-2-2-2-2-2-2-2-2-2-2-2-2-2-2-2-2--|
D||--7-7-7-7-7-7-7-7-5-5-5-5-5-5-5-5-3-3-3-3-3-3-3-3-3-3-3-3-3-3-3-3--|
A||--7-7-7-7-7-7-7-7-5-5-5-5-5-5-5-5-3-3-3-3-3-3-3-3-3-3-3-3-3-3-3-3--|
E||--5-5-5-5-5-5-5-5-3-3-3-3-3-3-3-3-1-1-1-1-1-1-1-1-1-1-1-1-1-1-1-1--|


E||--5-5-5-5-5-5-5-5-3-3-3-3-3-3-3-3-1-1-1-1-1-1-1-1-5~--|
B||--5-5-5-5-5-5-5-5-3-3-3-3-3-3-3-3-1-1-1-1-1-1-1-1-5~--|
G||--5-5-5-5-5-5-5-5-4-4-4-4-4-4-4-4-2-2-2-2-2-2-2-2-4~--|
D||--7-7-7-7-7-7-7-7-5-5-5-5-5-5-5-5-3-3-3-3-3-3-3-3-5~--|
A||--7-7-7-7-7-7-7-7-5-5-5-5-5-5-5-5-3-3-3-3-3-3-3-3-5~--|
E||--5-5-5-5-5-5-5-5-3-3-3-3-3-3-3-3-1-1-1-1-1-1-1-1-3~--|



[Outro]
Guitar 1:
E||-------------------------------------------------------------------|
B||--3-3-3-3-3-3-3-3-3-3-3-3-3-3-3-3----------------------------------|
G||--0-0-0-0-0-0-0-0-0-0-0-0-0-0-0-0-2-2-2-2-2-2-2-2-2-2-2-2-2-2-2-2--|
D||--2-2-2-2-2-2-2-2-2-2-2-2-2-2-2-2-3-3-3-3-3-3-3-3-3-3-3-3-3-3-3-3--| x2
A||--3-3-3-3-3-3-3-3-3-3-3-3-3-3-3-3-3-3-3-3-3-3-3-3-3-3-3-3-3-3-3-3--|
E||----------------------------------1-1-1-1-1-1-1-1-1-1-1-1-1-1-1-1--|


E||--0~--|
B||--1~--|
G||--0~--|
D||--2~--|
A||--3~--|
E||------|


Guitar 2:
E||-------------------------------------------------------------------|
B||-------------------------------------------------------------------|
G||--5-5-5-5-5-5-5-5-5-5-5-5-5-5-5-5----------------------------------|
D||--5-5-5-5-5-5-5-5-5-5-5-5-5-5-5-5-3-3-3-3-3-3-3-3-3-3-3-3-3-3-3-3--| x2
A||--3-3-3-3-3-3-3-3-3-3-3-3-3-3-3-3-3-3-3-3-3-3-3-3-3-3-3-3-3-3-3-3--|
E||----------------------------------1-1-1-1-1-1-1-1-1-1-1-1-1-1-1-1--|


E||--3~--|
B||--3~--|
G||--0~--|
D||--2~--|
A||--3~--|
E||------|




Tablature Legend
----------------
 h   hammer-on
 p   pull-off
 b   bend
 pb  pre-bend
 r   release bend
 ~   hold / vibrato
 .   palm mute
 /   slide up
 \   slide down
 *   pinch harmonic
 '   natural harmonic
 x   mute note
 T   tap
Suggest correction
Creating personal tab
Creating personal tab
You can edit any tab online and save it as your Personal.

You can edit, replace or remove any tab part or add personal notes – all changes will be seen only by you.

Personal tabs can be accessed anytime from any device, even offline.
Learn more »
comments
print report bad tab
5 comments total. Showing first comments.
+2 reply
kalypto 30 Aug 08, 2016 02:42 AM

sick tab mate best i've ever seen for this one

+1 reply
K33nbl4d3 402 Aug 08, 2016 02:45 AM

i would die for you, joshua garcia

0 reply
Rebel Scum 80 Aug 08, 2016 04:14 AM

Fucking mint

guest
You may want to rate the tab now too:
select rating
Wanna post a correction for this tab? Suggest correction