Oops, an error
Loading. Please wait.

Lovers Of The Sun Chords

337 views 12 this week
no commentswrite comment
1 2 3 4 5
3 more votes to show rating
add to favorites
launch autoscroll
font size
0
reset
transpose
0
reset
display chords
guitar tuner
Autoscroll
slow
fast
+/-
esc
set tempo
stop
Help us to improve Ultimate-Guitar.com Take our survey!
×
[Intro]   4x
                                                          
e|----------7----------5---------------------|
B|-------9----------7-----------5------------|
G|----8----------6----------4----------------|
D|-------------------------------------------|
A|-------------------------------------------|
E|-------------------------------------------|


[Verse]

G#m C#m     G#m                 C#m      
Hey Girl -  Look at what you’ve done
G#m        A             B    A - G#m
    All in ruins nothing won

(G#m) C#m     G#m        C#m
Back  seats - and empty stalls
G#m         A            F#m           B
Collecting numbers never called (never called)


[Chorus]

               E               A
Just watch her run (watch her run)
               E                     A
She’s a Lover of the Sun (watch her run)
               E               A
Just watch her run (watch her run)
              E  
She’s a Lover of the Sun


[Intro] 2x

e|----------7----------5---------------------|
B|-------9----------7-----------5------------|
G|----8----------6----------4----------------|
D|-------------------------------------------|
A|-------------------------------------------|
E|-------------------------------------------|


[Verse]

G#m  C#m   G#m         C#m   
Mainline - to Robert Frost
G#m               A              B     A - G#m
    She’ll find a way of getting lost

(G#m)  C#m     G#m             C#m 
White Noise, - hit an all time Low
G#m             A              F#m            B
There’s more to life than letting go (letting go)


[Chorus]

               E               A
Just watch her run (watch her run)
               E                     A
She’s a Lover of the Sun (watch her run)
               E               A
Just watch her run (watch her run)
              E 
She’s a Lover of the Sun


[Intro] 2x

e|----------7----------5---------------------|
B|-------9----------7-----------5------------|
G|----8----------6----------4----------------|
D|-------------------------------------------|
A|-------------------------------------------|
E|-------------------------------------------|


[Bridge]

E                            A
Over rolling hills along the highway
Am                          E
Far behind it almost fades away
E                                A
Wind to fall a face a different country
Am                                   E    C#m
Comes a time one might just find to stay
 
G#m    B    A - G#m

(G#m) C#m  G#m          C#m
 Amen      to earth and sky
G#m                 A              F#m            B
    There’s more to life than getting by (getting by)


[Chorus]

               E               A
Just watch her run (watch her run)
               E                     A
She’s a Lover of the Sun (watch her run)
               E               A
Just watch her run (watch her run)
              E
She’s a Lover of the Sun

               E               A
Just watch her run (watch her run)
               E               A
Just watch her run (watch her run)

Out: E
Suggest correction
Give kudos to tab author, rate the tab!
1 2 3 4 5
comments
print report bad tab
guest
You may want to rate the tab now too:
select rating
Wanna post a correction for this tab? Suggest correction