Oops, an error
Loading. Please wait.

Nothing Left To Borrow Bass Tab

22 views 1 this week
no commentswrite comment
1 2 3 4 5
3 more votes to show rating
add to favorites
launch autoscroll
font size
0
reset
guitar tuner
Autoscroll
slow
fast
+/-
esc
set tempo
stop
Help us to improve Ultimate-Guitar.com Take our survey!
×
Author
Difficulty
novice
[Intro]

G|---------------|------------|---------------|-------------|
D|---------------|-9----------|---------------|-9--7--6-----|
A|--5---/9--7--9-|---------4--|--5---/9--7--9-|----------9--|
E|---------------|-----7------|---------------|-------------|


G|------------|------------|------------|-----------4--|
D|------------|------------|------------|--------------|
A|--7----6-6--|--4----6-6--|--7----6-6--|--4----6-6----|
E|------------|------------|------------|--------------|


[Verse 1]

G|------------|------------|------------|------------|
D|------------|------------|------------|------------|
A|--7----6-6--|--4----6-6--|--7----6-6--|--4----6-6--|
E|------------|------------|------------|------------|


G|------------|------------|------------|--------------|
D|------------|------------|------------|-----6--4-----|
A|--7----6-6--|--4----6-6--|--7----6-6--|--4--------4--|
E|------------|------------|------------|--------------|


[Chorus]

G|--------------|------------------|-------------|--------------|
D|---------4----|------4-----------|-----1--4--1-|-2----4-4-4-4-|
A|------6-----6-|-7------------2---|-2-----------|--------------|
E|--7-----------|----------2h4---4-|-------------|--------------|


[Verse 2]

G|-----------|------------|------------|-----------4--|
D|-----------|------------|------------|--------------|
A|-7----6-6--|--4----6-6--|--7----6-6--|--4----6-6----|
E|-----------|------------|------------|--------------|


G|------------|------------|------------|--------------|
D|------------|------------|------------|-----6--4-----|
A|--7----6-6--|--4----6-6--|--7----6-6--|--4--------4--|
E|------------|------------|------------|--------------|


[Chorus]

G|--------------|------------------|-------------|---------|
D|---------4----|------4-----------|-----1--4--1-|-2----4--|
A|------6-----6-|-7------------2---|-2-----------|---------|
E|--7-----------|----------2h4---4-|-------------|---------|


G|------------------------|--------------------------|--------------|-----|
D|--6----4----7---6--4----|-6----4----7---6--4-------|--------------|--4--|
A|----------------------6-|---------------------6----|--------------|-----|
E|------------------------|-----------------------2--|--------------|-----|


[Interlude]

G|--------------|-------------|-------------|-------------|
D|--------------|-9-----------|-------------|-9--7--6-----|
A|--5---9--7--9-|-----------7-|-5---9--7--9-|----------9--|
E|--------------|-----7---7---|-------------|-------------|


G|------------|------------|------------|-----------4--|
D|------------|------------|------------|--------------|
A|--7----6-6--|--4----6-6--|--7----6-6--|--4----6-6----|
E|------------|------------|------------|--------------|


[Verse 3]

G|------------|------------|------------|--------------|
D|------------|------------|------------|-----6--4-----|
A|--7----6-6--|--4----6-6--|--7----6-6--|--4--------4--|
E|------------|------------|------------|--------------|


[Chorus]

G|--------------|------------------|-------------|------------------|
D|---------4----|------4-----------|-------------|------------------|
A|------6-----6-|-7------------2---|-2---6--9--6-|-7----9-\-----2---|
E|--7-----------|----------2h4---4-|-------------|----------2h4---4-|


G|-------------|---------|
D|-----1--4--1-|-2----4--|
A|-2-----------|---------|
E|-------------|---------|


G|------------------------|-----------------------|
D|--6----4----7---6--4----|-6----4----7---6--4----|
A|----------------------6-|---------------------6-|
E|------------------------|-----------------------|


G|-----------------------|-----------------------|
D|-6----4----7---6--4----|-6----4----7---6--4----|
A|---------------------6-|---------------------6-|
E|-----------------------|-----------------------|


[Outro]

G|-----------------------|------------------------|-----------------------|-----|
D|-6----6----6--------4--|--6----6----6--------4--|-6----6----6--------4--|--6--|
A|----6----6------4-6----|-----6----6------4-6----|----6----6----4--6-----|-----|
E|-----------------------|------------------------|-----------------------|-----|



*************************

| / : slide up
| \ : slide down
| h : hammer-on

*************************

in regular sequence!
Suggest correction
Give kudos to tab author, rate the tab!
1 2 3 4 5
comments
print report bad tab
guest
You may want to rate the tab now too:
select rating
Wanna post a correction for this tab? Suggest correction