Oops, an error
Loading. Please wait.

Real Light Bass Tab

16 views 1 this week
no commentswrite comment
1 2 3 4 5
3 more votes to show rating
add to favorites
launch autoscroll
font size
0
reset
guitar tuner
Autoscroll
slow
fast
+/-
esc
set tempo
stop
Help us to improve Ultimate-Guitar.com Take our survey!
×
Author
Difficulty
novice
Bass Start - 00:04


[Intro]

G|----------------|----------------|
D|--2--2----------|--2--2----------|
A|----------------|----------------|
E|----------------|----------------|


[Chorus]

G|--------------|--------------|--------------|-------------| (x2)
D|--2---2-2--4--|--5---5-7--5--|--3---3-3---3-|-5--3-----0--|
A|--------------|--------------|--------------|-------3-----|
E|--------------|--------------|--------------|-------------|


[Verse 1] (x2)

G|--------------|--------------|--------------|--------------|
D|--2---2-------|--0---0-------|--2---2-------|--0---0-------|
A|--------2--0--|--------2--0--|--------2--0--|--------2--0--|
E|--------------|--------------|--------------|--------------|


G|--------------|--------------|--------------|--------------|--------------|
D|--2-----------|--------------|--------------|--2---2-------|--2---2-------|
A|------0-2-----|--0-----0--2--|--3-----3--5--|--------2--0--|--------2--0--|
E|-----------3--|------3-------|------3-------|--------------|--------------|


[Verse 1 End]

G|----------------|---------------|
D|--2--2----------|--2--2---------|
A|----------------|--------5-\----|
E|----------------|---------------|


[Chorus]

G|--------------|--------------|--------------|-------------| (x2)
D|--2---2-2--4--|--5---5-7--5--|--3---3-3---3-|-5--3-----0--|
A|--------------|--------------|--------------|-------3-----|
E|--------------|--------------|--------------|-------------|


G|--------------|--------------|
D|--2---2-2--4--|--5---5-------|
A|--------------|--------7--5--|
E|--------------|--------------|


G|--------------|--------------|--------------|--------------|
D|--------5-----|--------5-----|--------------|--------------|
A|--3---3----3--|--2---2----2--|--------7-----|--------0--2--|
E|--------------|--------------|--5---5----5--|--3--3--------|


G|--------------|--------------|--------------|--------------|
D|--------5-----|--------5-----|--------------|--------------|
A|--3---3----3--|--2---2----2--|--------7-----|-----2--2--5--|
E|--------------|--------------|--5---5----5--|--3-----------|


[Interlude]

G|--------------|--------------|--------------|--------------|
D|--2---2-------|--0---0-------|--2---2-------|--0---0-------|
A|--------2--0--|--------2--0--|--------2--0--|--------2--0--|
E|--------------|--------------|--------------|--------------|


G|--------------|--------------|--------------|--------------|--------------|
D|--2-----------|--------------|--------------|--2---2-------|--2---2-------|
A|------0-2-----|--0-----0--2--|--3-----3--5--|--------2--0--|--------2--0--|
E|-----------3--|------3-------|------3-------|--------------|--------------|


[Verse 2]

G|--------------|--------------|--------------|--------------|
D|--2---2-------|--0---0-------|--2---2-------|--0---0-------|
A|--------2--0--|--------2--0--|--------2--0--|--------2--0--|
E|--------------|--------------|--------------|--------------|


G|--------------|--------------|--------------|--------------|---------------|
D|--2-----------|--------------|--------------|--2---2-------|--2---2--------|
A|------0-2-----|--0-----0--2--|--3-----3--5--|--------2--0--|--------2-2-0--|
E|-----------3--|------3-------|------3-------|--------------|---------------|


G|----------------|----------------|
D|--2--2----------|--2--2----------|
A|----------------|----------------|
E|----------------|----------------|


[Chorus]

G|--------------|--------------|--------------|-------------| (x2)
D|--2---2-2--4--|--5---5-7--5--|--3---3-3---3-|-5--3-----0--|
A|--------------|--------------|--------------|-------3-----|
E|--------------|--------------|--------------|-------------|


G|--------------|--------------|
D|--2---2-2--4--|--5---5-------|
A|--------------|--------7--5--|
E|--------------|--------------|


G|--------------|--------------|--------------|--------------| (x2)
D|--------5-----|--------5-----|--------------|--------------|
A|--3---3----3--|--2---2----2--|--------7-----|--------0--2--|
E|--------------|--------------|--5---5----5--|--3--3--------|


G|--------------|--------------|--------------|--------------|
D|--------5-----|--------5-----|--------------|-----5--2--0--|
A|--3---3----3--|--2---2----2--|--------7-----|--------------|
E|--------------|--------------|--5---5----5--|--3-----------|


[Outro]

G|--------------|--------------|--------------|--------------|
D|--------5-----|--------5-----|--------------|--------------|
A|--3---3----3--|--2---2----2--|--------------|--------0--2--|
E|--------------|--------------|--5---5-7--5--|--3--3--------|


G|--------------|--------------|--------------|--------------|
D|--------5-----|--------5-----|--------------|-----5--2--0--|
A|--3---3----3--|--2---2----2--|--------------|--------------|
E|--------------|--------------|--5---5-7--5--|--3-----------|


G|--------------|--------------|--------------|--------------|
D|--------5-----|--------5-----|--------------|--------------|
A|--3---3----3--|--2---2----2--|--------------|--------0--2--|
E|--------------|--------------|--5---5-7--5--|--3--3--------|


G|--------------|--------------|----------------|------------|
D|--------5-----|--------5-----|----------------|------------|
A|--3---3----3--|--2---2----2--|----------------|------------|
E|--------------|--------------|--5----7--7--5--|--3---------|



**********************

| \ : slide down

**********************

in regular sequence! 
Suggest correction
Give kudos to tab author, rate the tab!
1 2 3 4 5
comments
print report bad tab
guest
You may want to rate the tab now too:
select rating
Wanna post a correction for this tab? Suggest correction