Oops, an error
Loading. Please wait.

Save It For A Rainy Day Tab

version 1
version 1

Whole song

Interactive

1,082 views 15 this week
no commentswrite comment
1 2 3 4 5
please rate
add to favorites
launch autoscroll
font size
0
reset
how to read this tab
guitar tuner
Tab Pro tools
  • play this tab
  • loop segment
  • change instrument
  • show fretboard
  • metronome
×
Best way to learn
"Save It For A Rainy Day"
Autoscroll
slow
fast
+/-
esc
set tempo
stop
Contributor
Difficulty
intermediate
Fell in love with this song once I heard it and couldn't find any tabs with the solo in 
it so decided to tab it out. :)
Please leave comments so I can improve accordingly. cheers.

Tuning:Standard EADGBE

Riff at the start that is repeated after the choruses

e|--------------------------------------------------------|
B|----7---7--7--7---5---5---7---7-------------------------|
G|--4---4--3--3-----------3---3---------------------------|  X 2
D|----------------6---6-----------------------------------|
A|--------------------------------------------------------|
E|--------------------------------------------------------|


Chords for verse

e|--------------------------------------------------------------------|
B|--------------------------------------------------------------------|
G|-----------------------6--------------------------------------------|
D|----9------------------6--------------------------------------------|
A|----9------------------4--------------------------------------------|
E|----7---------------------------------------------------------------|
Pretty little hairdo,    Don't do what it used to

e|------------------------------------------------------------------------|
B|------------------------------------------------------------------------|
G|----9-------------------------------------------------------------------|
D|----9-------------------------9-----------------------------------------|
A|----7-------------------------9-----------------------------------------|
E|------------------------------7-----------------------------------------|
     Can't disguise the living, all the miles that you've been through

Repeat again for:
Looking like a train wreck.... etc.

Chorus

e|-----------------------------------------------------------------------|
B|-----------------------------------------------------------------------|
G|-------6-------------9-------------------------------------11----------|
D|-------6-------------9-------------9-----------------------11----------|
A|-------4-------------7-------------9-----------------------9-----------|
E|-----------------------------------7-----------------------------------|
(So sad) Don't look so sad Marina.   There's another part to play


e|--------------------------------------------------------------------|
B|--------------------------------------------------------------------|
G|-------6-------------9---------------------------------6------------|
D|-------6-------------9-------------6-------------------6------------|
A|-------4-------------7-------------6-------------------4------------|
E|-----------------------------------4--------------------------------|
(So sad) Don't look so sad Marina.   Save it for a rainy day

e|--------------------------------------------------------------------|
B|--------------------------------------------------------------------|
G|----9---------------------------------------------------------------|
D|----9-------------------9-------------------------------------------|
A|----7-------------------9-------------------------------------------|
E|------------------------7-------------------------------------------|
      Save it for a rainy day


Verse 2 (same chords as verse 1)

Chorus

Bridge

During harmonica solo - same chords as verse, i.e.
e|------------------------------------------------------------|
B|------------------------------------------------------------|
G|------------6--------9--------------------------------------|
D|----9-------6--------9-------9------------------------------|
A|----9-------4--------7-------9------------------------------|
E|----7------------------------7------------------------------|

Solo

e|--------------------------------------------------------------------------|
B|--------------------------------------------------------------------------|
G|--------------------------------------------------------------------------|
D|-----------------------------------------------9---12b13--12b13-12b13-11~-|
A|------------------------6----s9~--------9--11-----------------------------|
E|--7--9--7--9--7--9---7----------------------------------------------------|


e|------------------------------------------------------------------------|
B|------------------------------------------------------------------------|
G|------13-13---------------------13~---------13b14b13---13----11---------|
D|---11----13--11~---------11s13-----------------------9-----9----13~-----|
A|------------------------------------------------------------------------|
E|------------------------------------------------------------------------|


e|--------------------------------------------------------------------|
B|--12----------------------------------------------------------------|
G|-----11-------------------------------------------------------------|
D|--------9---s11--13~------------------------------------------------|
A|--------------------------------------------------------------------|
E|--------------------------------------------------------------------|
comments
We did not receive enough feedback on this tab! Please rate:
print report bad tab
1 2 3 4 5
I want to post or [tab]
guest
You may want to rate the tab now too:
select rating
Please do not post tabs as comments. Select "correction" instead!