Oops, an error
Loading. Please wait.

About You tab

124 views 6 this week
no commentswrite comment
1 2 3 4 5
3 more votes to show rating
add to favorites
×
Save as Personal and add changes to this tab that will be seen only by you. Learn more ›
×
You can save this tab as Personal to edit and correct it or add notes. All changes will be seen only by you. Learn more »
launch autoscroll
font size
0
reset
how to read this tab
guitar tuner
edit
Autoscroll
slow
fast
+/-
esc
set tempo
stop
Author
Difficulty
[Verse 1]
     ...see
  ...and me
e|-----------------------|
B|---------------10------|
G|----------9/11----11-9-| (x2)
D|-----------------------|
A|-----------------------|
E|-----------------------|

I can see
That you and me
Live our lives in the pouring rain
And the raindrops beat out of time to our refrain

[Verse 2]
  ...and me
     ...see
e|-----------------------|
B|---------------10------|
G|----------9/11----11-9-| (x2)
D|-----------------------|
A|-----------------------|
E|-----------------------|

And you and me
Will win, you'll see
People die in their living rooms
But they do not need this God almighty gloom

[Solo]
e|-----------------------------------------|---------------------------------------------|
B|---------------------------------7/9---7-|---------------------------------5/7-5/7-----|
G|-6-6-6-6-6-6-6-6-6-6-6-6-7/9-9-9-----9---|-6-6-6-6-6-6-6-6-6-6-6-6-7/9-9-9---------7-4-|
D|-----------------------------------------|---------------------------------------------|
A|-----------------------------------------|---------------------------------------------|
E|-----------------------------------------|---------------------------------------------|

[Chorus]
...rain                 ...warm    ...warm   ...warm   ...everything                     
e|----------------------|-------|---------|---------|--------------|
B|----------------------|-------|---------|---------|--------------|
G|----------------------|----9--|------9--|------9--|------------9-|
D|------7--7/9-7-9-11-9-|-------|---------|---------|--------------|
A|----------------------|-------|---------|---------|--------------|
E|----------------------|-------|---------|---------|--------------|

There's something warm about the rain
There's something warm
There's something warm
There's something warm in everything

[Outro]
e|--------------|
B|--------------| 
G|-9-9--9-9-9-9-| (x9)
D|--------------|
A|--------------|
E|--------------|

e|-----------------|
B|-----------------| 
G|---------------9-|
D|-7--7-7--7-7-7---|
A|-----------------|
E|-----------------|

I know there's something good
There's something good

e|--------------|
B|--------------| 
G|-9-9--9-9-9-9-| (x5)
D|--------------|
A|--------------|
E|--------------|

e|-----------------|
B|-----------------| 
G|---------------9-|
D|-7--7-7--7-7-7---|
A|-----------------|
E|-----------------|

e|--------------|
B|--------------| 
G|-9-9--9-9-9-9-| (x3)
D|--------------|
A|--------------|
E|--------------|

About you 
About you
About you
I know there's something warm
There's something warm
There's something warm
Good about you

***********************************
| /   Slide up
***********************************
Suggest correction
Creating personal tab
Creating personal tab
You can edit any tab online and save it as your Personal.

You can edit, replace or remove any tab part or add personal notes – all changes will be seen only by you.

Personal tabs can be accessed anytime from any device, even offline.
Learn more »
Give kudos to tab author, rate the tab!
1 2 3 4 5
comments
print report bad tab
guest
You may want to rate the tab now too:
select rating
Wanna post a correction for this tab? Suggest correction