Oops, an error
Loading. Please wait.

On The Wall Bass Tab

16 views 3 this week
no commentswrite comment
1 2 3 4 5
3 more votes to show rating
add to favorites
launch autoscroll
font size
0
reset
guitar tuner
Autoscroll
slow
fast
+/-
esc
set tempo
stop
Help us to improve Ultimate-Guitar.com Take our survey!
×
Author
Difficulty
novice
[Intro]

G|----------------|----------------|----------------|----------------|
D|----------------|----------------|----------------|----------------|
A|--4-------------|----------------|--4-------------|----------------|
E|----------------|--2-------------|----------------|--2-------------|


[Verse]

G|----------------|----------------|----------------|----------------| (x4)
D|----------------|----------------|----------------|----------------|
A|--4-------------|----------------|--4-------------|----------------|
E|----------------|--2-------------|----------------|--2-------------|


G|----------------|----------------|----------------|----------------| (x6)
D|----------------|----------------|----------------|----------------|
A|--4-------------|----------------|--4-------------|----------------|
E|-------------4--|--2-------------|-------------4--|--2-------------|


G|----------------|----------------|
D|----------------|----------------|
A|--4-------------|----------------|
E|-------------4--|--2-------------|


[Chorus]

G|----------------|----------------|----------------|----------------| 
D|----------------|----------------|----------------|----------------|
A|--4-------------|----------------|--4-------------|----------------|
E|----------------|--2-------------|----------------|--2-------------|


G|----------------|----------------|
D|----------------|----------------|
A|--4-------------|----------------|
E|----------------|--2-------------|


[Instrumental]

G|----------------|----------------|----------------|----------------| (x2)
D|----------------|----------------|----------------|----------------|
A|--4-------------|----------------|--4-------------|----------------|
E|----------------|--2-------------|----------------|--2-------------|


[Verse]

G|----------------|----------------|----------------|----------------| (x4)
D|----------------|----------------|----------------|----------------|
A|--4-------------|----------------|--4-------------|----------------|
E|----------------|--2-------------|----------------|--2-------------|


[Interlude]

G|----------------|----------------|----------------|----------------| (x2)
D|----------------|----------------|----------------|----------------|
A|--4-------------|----------------|--4-------------|----------------|
E|----------------|--2-------------|----------------|--2-------------|


[Verse]

G|----------------|----------------|----------------|----------------| (x2)
D|----------------|----------------|----------------|----------------|
A|--4-------------|----------------|--4-------------|----------------|
E|----------------|--2-------------|----------------|--2-------------|


G|----------------|----------------|
D|----------------|----------------|
A|--4-------------|----------------|
E|----------------|--2-------------|


[Chorus]

G|----------------|----------------|----------------|----------------| 
D|----------------|----------------|----------------|----------------|
A|--4-------------|----------------|--4-------------|----------------|
E|----------------|--2-------------|----------------|--2-------------|


G|----------------|----------------|
D|----------------|----------------|
A|--4-------------|----------------|
E|----------------|--2-------------|


[Outro] (repeat until the end)

G|----------------|----------------|----------------|----------------| 
D|----------------|----------------|----------------|----------------|
A|--4-------------|----------------|--4-------------|----------------|
E|----------------|--2-------------|----------------|--2-------------|



*************************

in regular sequence!

*************************
Suggest correction
Give kudos to tab author, rate the tab!
1 2 3 4 5
comments
print report bad tab
guest
You may want to rate the tab now too:
select rating
Wanna post a correction for this tab? Suggest correction