Oops, an error
Loading. Please wait.

Monkey Trick bass

version 2
version 2

Whole song

Interactive

2,951 views 3 this week
1 commentread comment
1 2 3 4 5
2 more votes to show rating
add to favorites
×
Save as Personal and add changes to this tab that will be seen only by you. Learn more ›
×
You can save this tab as Personal to edit and correct it or add notes. All changes will be seen only by you. Learn more »
launch autoscroll
font size
0
reset
guitar tuner
edit
Autoscroll
slow
fast
+/-
esc
set tempo
stop
Author
Difficulty
Intro:

G-----------------|
D-1-1-1-1-1-1-1-1-|
A-----------------|
E-----------------|

Main Riff:

G---------------------|--------------------------------|
D---------------------|-----------------0-1-0-1-3-0-4-.|
A-3-3--3-3--3-3--3-3--|-3-3-3--3-3--3-3---------------.|
E---------------------|--------------------------------|

Bridge:

G------------------------------|
D-----------------------------.|
A-4-3-3-3--4-4-4-4-3-3-3--4-4-.|
E------------------------------|

I think those are the only three bass riffs, and they repeat over
and over.

            
            
Suggest correction
Creating personal tab
Creating personal tab
You can edit any tab online and save it as your Personal.

You can edit, replace or remove any tab part or add personal notes – all changes will be seen only by you.

Personal tabs can be accessed anytime from any device, even offline.
Learn more »
Give kudos to tab author, rate the tab!
1 2 3 4 5
comments
print report bad tab
1 comment total.
0 reply
Skadettle 334 Jan 13, 2010 08:51 AM

From the various videos I've found, it looks like he plays it 5th position. Just add 5 to all the numbers and move it down a string if you want to play it that way. Too much finger stretching for me, though.

guest
You may want to rate the tab now too:
select rating
Wanna post a correction for this tab? Suggest correction