Oops, an error
Loading. Please wait.

Monkey Trick tab

version 2
version 2

Whole song

Interactive

1,140 views 3 this week
1 commentread comment
1 2 3 4 5
2 more votes to show rating
add to favorites
×
Save as Personal and add changes to this tab that will be seen only by you. Learn more ›
×
You can save this tab as Personal to edit and correct it or add notes. All changes will be seen only by you. Learn more »
launch autoscroll
font size
0
reset
how to read this tab
guitar tuner
edit
Autoscroll
slow
fast
+/-
esc
set tempo
stop
Author
Difficulty
From the videos I've seen of Duane playing this song,
it appears that he and David Wm. Simms play in 7th or
8th position.  This is what I could muster based on
that and GuitarPlaya's tab.  It's basically 4 parts
an interlude and a breakdown.

Intro

e|-----------------|--------|----------|
B|-8-8-8-8-8-8-8-8-|--------|--you'll--|
G|-8-8-8-8-8-8-8-8-|.-rest-.|.--------.|
D|-8-8-8-8-8-8-8-8-|.------.|.--need--.|
A|-6-6-6-6-6-6-6-6-|--------|----------|
E|-----------------|--------|----it----|

e|-------0~~~~~|~~|------0~~~-------|-|------0~~~|~--------|
B|-------------|--|-----------------|-|----------|---------|
G|.--------8~~~|~.|--------8~-8b9r8~|~|--------8~|~-10/11\-|
D|.-9/10~~~~~~~|~.|-9/10~~~~~-9~~~~~|~|-9/10~~~~~|~-12/13\-|
A|-------------|--|-----------------|-|----------|---------|
E|-------------|--|-----------------|-|----------|---------|

"He's gone in her lips..."

e|----------------|-------------------|-----------------|-------------------|
B|-8--------------|-------------------|-8---------------|-------------------|
G|.-----7-8~------|-------------------|------7-8~-------|------------------.|
D|.--10---------8-|-10~---------8--8--|---10----------8-|-10~--------8---7-.|
A|-----------11---|-----8-10-11-10-10-|-----------11----|-----8-10-11--5----|
E|----------------|-------------------|-----------------|-------------------|

"...shaaaaaade"

e|-----------------|---------------|-------------|
B|-----------------|---------------|-------------|
G|-7-7/5-5-5\7-7-7-|-7/5-5-5-7-7-7-|-7/5-5-5-7-7-|
D|-8-8/6-6-6\8-8-8-|-8/6-6-6-8-8-8-|-8/6-6-6-8-8-|
A|-----------------|---------------|-------------|
E|-----------------|---------------|-------------|

Scream

e|-----------------|--------|----------|
B|-8-8-8-8-8-8-8-8-|--------|--you'll--|
G|-8-8-8-8-8-8-8-8-|.-rest-.|.--------.|
D|-8-8-8-8-8-8-8-8-|.------.|.--need--.|
A|-6-6-6-6-6-6-6-6-|--------|----------|
E|-----------------|--------|----it----|

"Only a little is used..."

e|--------------------------------0~|~~~|~----------------|
B|-8--8--8----8--|-8--8--8----------|---|-----------------|
G|-8--8--8----8--|-8--8--8----------|-8~|~-8b9r8b9r8b9r8~.|
D|-10-10-10---10-|-10-10-10--9/10~~~|~~~|~-10~~10~~10~~~~.|
A|---------------|------------------|---|-----------------|
E|---------------|------------------|---|-----------------|

"Tonight at the knife stick-up place..."

e|----------------|-------------------|-----------------|-------------------|
B|-8--------------|-------------------|-8---------------|-------------------|
G|.-----7-8~------|-------------------|------7-8~-------|------------------.|
D|.--10---------8-|-10~---------8--8--|---10----------8-|-10~--------8---7-.|
A|-----------11---|-----8-10-11-10-10-|-----------11----|-----8-10-11--5----|
E|----------------|-------------------|-----------------|-------------------|

"What are they doing outside..."

e|-----------------|---------------|-------------|
B|-----------------|---------------|-------------|
G|-7-7/5-5-5\7-7-7-|-7/5-5-5-7-7-7-|-7/5-5-5-7-7-|
D|-8-8/6-6-6\8-8-8-|-8/6-6-6-8-8-8-|-8/6-6-6-8-8-|
A|-----------------|---------------|-------------|
E|-----------------|---------------|-------------|

"What are they doing?!" + "It's so much brown and crap, it's set in an odd
light..."

e|-----------------|--------|----------|
B|-8-8-8-8-8-8-8-8-|--------|--you'll--|
G|-8-8-8-8-8-8-8-8-|.-rest-.|.--------.|
D|-8-8-8-8-8-8-8-8-|.------.|.--need--.|
A|-6-6-6-6-6-6-6-6-|--------|----------|
E|-----------------|--------|----it----|

"Insomuch as they don't know..."

e|-0~|~|-0~~|~|-0~~|~|-0~~|~|-0~~|~|-0~~|~|-0~~|~|-0~|~|
B|-8~|~|-8~~|~|-10~|~|-12~|~|-8~~|~|-10~|~|-12~|~|-8~|~|
G|-9~|~|-9~~|~|-12~|~|-11~|~|-9~~|~|-12~|~|-11~|~|-9~|~|
D|-9~|~|-10~|~|-11~|~|-9~~|~|-10~|~|-11~|~|-9~~|~|-9~|~|
A|-7~|~|-10~|~|-12~|~|-10~|~|-10~|~|-12~|~|-10~|~|-7~|~|
E|-0~|~|-0~~|~|-0~~|~|-0~~|~|-0~~|~|-0~~|~|-0~~|~|-0~|~|

"An absurd gag..."

e|------0~~~|~|-----|-|-|-|-|
B|----------|-|-8\--|-|-|-|-|
G|--------8~|~|-8\--|-|-|-|-|
D|-9/10~~~~~|~|-10\-|-|-|-|-|
A|----------|-|-----|-|-|-|-|
E|----------|-|-----|-|-|-|-|

Breakdown

e|-----------|-----------|-----------|----------------|
B|-13tr-15tr-|-13tr-12tr-|-13tr-15tr-|-13tr-12tr-15tr-|
G|-12tr-13tr-|-12tr-12tr-|-12tr-13tr-|-12tr-12tr-13tr-|
D|-13tr-15tr-|-13tr-12tr-|-13tr-15tr-|-13tr-12tr-15tr-|
A|-----------|-----------|-----------|----------------|
E|-----------|-----------|-----------|----------------|

e|-----------|-----------|-----------|------|
B|-13tr-15tr-|-13tr-12tr-|-13tr-15tr-|-12tr-|
G|-12tr-13tr-|-12tr-12tr-|-12tr-13tr-|-12tr-|
D|-13tr-15tr-|-13tr-12tr-|-13tr-15tr-|-12tr-|
A|-----------|-----------|-----------|------|
E|-----------|-----------|-----------|------|

"Ow!"

e|-----------------|------------------|
B|-8--8---8--8--8--|-8--8---8--8--8---|
G|-8--8---8--8--8--|-8--8---8--8--8--.|
D|-10-10--10-10-10-|-10-10--10-10-10-.|
A|-----------------|------------------|
E|-----------------|------------------|


e|-----------------|-----------------|
B|-8--8---8--8--8--|-8--8---8--8--8--|
G|-8--8---8--8--8--|-8--8---8--8--8--|
D|-10-10--10-10-10-|-10-10--10-10-10-|
A|-----------------|-----------------|
E|-----------------|-----------------|

e|-----------------|-----------------------|
B|-8--8---8--8--8--|-8--8---8/-10\8-/10\8--|
G|-8--8---8--8--8--|-8--8---8/-10\8-/10\8--|
D|-10-10--10-10-10-|-10-10--10/12\10/12\10-|
A|-----------------|-----------------------|
E|-----------------|-----------------------|

e|-----------------|------------------|
B|-8--8---8--8--8--|-8--8---8--8--8---|
G|-8--8---8--8--8--|-8--8---8--8--8--.|
D|-10-10--10-10-10-|-10-10--10-10-10-.|
A|-----------------|------------------|
E|-----------------|------------------|


e|-----------------|------------------|
B|-8--8---8--8--8--|-8--8---8--8--8---|
G|-8--8---8--8--8--|-8--8---8--8--8--.|
D|-10-10--10-10-10-|-10-10--10-10-10-.|
A|-----------------|------------------|
E|-----------------|------------------|

"Tonight at the knife stick-up place..."

e|----------------|-------------------|-----------------|-------------------|
B|-8--------------|-------------------|-8---------------|-------------------|
G|.-----7-8~------|-------------------|------7-8~-------|------------------.|
D|.--10---------8-|-10~---------8--8--|---10----------8-|-10~--------8---7-.|
A|-----------11---|-----8-10-11-10-10-|-----------11----|-----8-10-11--5----|
E|----------------|-------------------|-----------------|-------------------|

"I know they have them..."

e|-----------------|---------------|-------------|
B|-----------------|---------------|-------------|
G|-7-7/5-5-5\7-7-7-|-7/5-5-5-7-7-7-|-7/5-5-5-7-7-|
D|-8-8/6-6-6\8-8-8-|-8/6-6-6-8-8-8-|-8/6-6-6-8-8-|
A|-----------------|---------------|-------------|
E|-----------------|---------------|-------------|

"What are they doing?!"

e|-----------------||
B|-8-8-8-8-8-8-8-8-||
G|-8-8-8-8-8-8-8-8-||
D|-8-8-8-8-8-8-8-8-||
A|-6-6-6-6-6-6-6-6-||
E|-----------------||

            
            
Suggest correction
Creating personal tab
Creating personal tab
You can edit any tab online and save it as your Personal.

You can edit, replace or remove any tab part or add personal notes – all changes will be seen only by you.

Personal tabs can be accessed anytime from any device, even offline.
Learn more »
Give kudos to tab author, rate the tab!
1 2 3 4 5
comments
print report bad tab
1 comment total.
0 reply
Skadettle 334 Jun 23, 2010 05:17 AM

Crap, totally messed up. In the "He's gone in her lips.." sections and the others that look like it, the 7 on the D should be an 11 on the A. Also, I the double stop in that riff should have an 11 not a 10. Let me know which sounds more correct.

guest
You may want to rate the tab now too:
select rating
Wanna post a correction for this tab? Suggest correction