Oops, an error
Loading. Please wait.

Seasick bass

1,181 views 3 this week
no commentswrite comment
1 2 3 4 5
3 more votes to show rating
add to favorites
×
Save as Personal and add changes to this tab that will be seen only by you. Learn more ›
×
You can save this tab as Personal to edit and correct it or add notes. All changes will be seen only by you. Learn more »
launch autoscroll
font size
0
reset
guitar tuner
edit
Autoscroll
slow
fast
+/-
esc
set tempo
stop
Author
Difficulty
Artist - The Jesus Lizard
Song - Seasick
Album - Goat
Bassist - David Wm. Sims
Tabber - Str84ever

This song seems pretty simple to me. The bass is pretty hidden in the mix behind the 
and drums so its not the easiest to hear but i think that this is nearly 100% correct apart 
maybe the outro.

Intro - repeat this till verse

G|---------------|
D|---------------|
A|---------------|
E|-0-0-0-0-3-0-3-|

Verse - same riff but palm muted.

G|---------------|
D|---------------|
A|---------------|
E|-0-0-0-0-3-0-3-|
PM...............

Chorus - same as the intro

G|---------------|
D|---------------|
A|---------------|
E|-0-0-0-0-3-0-3-|

Post-chorus - when Yow is wailing swimmmmmm at the end of the chorus, its just E note.

G|---------------|
D|---------------|
A|---------------|
E|-0-------------|

Verse 2

G|---------------|
D|---------------|
A|---------------|
E|-0-0-0-0-3-0-3-|
PM...............

Chorus 2

G|---------------|
D|---------------|
A|---------------|
E|-0-0-0-0-3-0-3-|

Post-chorus 2

G|---------------|
D|---------------|
A|---------------|
E|-0-------------|

Bridge 1 - guitar is playing muted strings so i guess the bass could play it
too though i don't really hear it then there is a tiny bit of bass which is palm muted 
that repeats for the first part of the bridge.

x - rake strings

G|-x-------------|
D|-x-------------|
A|-x-------------|
E|-x---0-3-3-0---|
PM    .........

Bridge 2 - "take a dip..." - there are some variations nothing to hard to work out.

G|-------------|
D|-------------|
A|-------------|
E|-0-0-0-3-3-3-|
PM ...........

or

G|-------------|
D|-------------|
A|-------------|
E|-0-0-0-3-3-0-|
PM ...........

Verse 3

G|---------------|
D|---------------|
A|---------------|
E|-0-0-0-0-3-0-3-|
PM...............

Outro - this is the bit i am not 100% on but i am nearly certain its something like this:

G|-------------|
D|-------------|
A|-------------|
E|-0-0-0-0-3-3-|

G|------------|
D|------------|
A|------------|
E|-0-0-0-0-3v-|

v - vibrato

It's a mixture of those two riffs. There may be other notes in there but i can't hear 
and those two fit over it fine.

That's it.

Any questions yadda yadda post to my UG profile.

            
            
Suggest correction
Creating personal tab
Creating personal tab
You can edit any tab online and save it as your Personal.

You can edit, replace or remove any tab part or add personal notes – all changes will be seen only by you.

Personal tabs can be accessed anytime from any device, even offline.
Learn more »
Give kudos to tab author, rate the tab!
1 2 3 4 5
comments
print report bad tab
guest
You may want to rate the tab now too:
select rating
Wanna post a correction for this tab? Suggest correction