Oops, an error
Loading. Please wait.

Easy To Love tab

6,946 views 3 this week
1 commentread comment
1 2 3 4 5
x 3
add to favorites
×
Save as Personal and add changes to this tab that will be seen only by you. Learn more ›
×
You can save this tab as Personal to edit and correct it or add notes. All changes will be seen only by you. Learn more »
launch autoscroll
font size
0
reset
how to read this tab
guitar tuner
edit
Autoscroll
slow
fast
+/-
esc
set tempo
stop
http://www.thejezabels.com/

Where there's the word LYRICS, in the tab, is where I cannot for the life of me figure
she's singing. Every time I think I have it I lose it again. So, LYRICS is the best I
do, sorry. But apart from that, this tab is based off the piano part of the song, rather 
the different chord shapes the guitar plays.


e------------------------------------------------------------------|
B------------------------------------------------------------------|
G--6---6-----------1---1---1---1---6---6-----------1---1-----------|
D--7---7---4---4---2---2---2---2---7---7---4---4---2---2---4---4---|
A--7---7---4---4---2---2---2---2---7---7---4---4---2---2---4---4---|
E--5---5---2---2-------------------5---5---2---2-----------2---2---|
Well I was the one who showed you the sky
But you brought it down, down to my thighs
Sadly believed every word I didn't mean
About loving darkness.

And there it is now, he enters the room
It guts like a fish to see how he's grown
Saw me go out onto the town to mess around
Ooh get my groove on, mess around.


e--------------------------------------|
B--------------------------------------|
G--9---11---14---14---14---4---7---7---|
D--9---11---14---14---14---4---7---7---|
A--7---9----12---12---12---2---5---5---|
E--------------------------------------|
Mess around, oh get my groove on
Mess around
LYRICS


e------------------------------------------------------------------|
B------------------------------------------------------------------|
G--6---6-----------1---1---1---1---6---6-----------1---1-----------|
D--7---7---4---4---2---2---2---2---7---7---4---4---2---2---4---4---|
A--7---7---4---4---2---2---2---2---7---7---4---4---2---2---4---4---|
E--5---5---2---2-------------------5---5---2---2-----------2---2---|
Well you were the one who thought it was funny
That half of the world had never seen money
Shimmy-shuffle 'round, break it all down
It never comes to an end as long as you can help yourself

There it is now, she enters the room
It guts like a fish to see how she's grown
Saw me go blind, step out of line, you know I can't help myself
When you get your groove on, I go blind.


e--------------------------------------|
B--------------------------------------|
G--9---11---14---14---14---4---7---7---|
D--9---11---14---14---14---4---7---7---|
A--7---9----12---12---12---2---5---5---|
E--------------------------------------|
Ooh get your groove on
I go blinds
Ooh get your groove on
I go blind
LYRICS


e------------------------------------------------------------------|
B------------------------------------------------------------------|
G--9---9---9---9---9---9---9---9---7---7---7---7---7---7---7---7---|
D--9---9---9---9---9---9---9---9---7---7---7---7---7---7---7---7---|
A--7---7---7---7---7---7---7---7---5---5---5---5---5---5---5---5---|
E------------------------------------------------------------------|
So, let me go out into the evil world that you know
Where my baby cries, but I cut the ties
Oh, let me go, let me go, let me go out into the sinful world that you know
That you really love
Just let me be easy to love

e--------------------------------------|
B--------------------------------------|
G--9---11---14---14---14---4---7---7---|
D--9---11---14---14---14---4---7---7---|
A--7---9----12---12---12---2---5---5---|
E--------------------------------------|
Let me be easy to love
Let me be easy to love

e--------------------------------------|
B--------------------------------------|
G--9---11---14---14---14---4---7---7---|
D--9---11---14---14---14---4---7---7---|
A--7---9----12---12---12---2---5---5---|
E--------------------------------------|

e--------------------------------------|
B--------------------------------------|
G--9---11---14---14---14---4---7---7---|
D--9---11---14---14---14---4---7---7---|
A--7---9----12---12---12---2---5---5---|
E--------------------------------------|
When you get your groove on, I go blind
When you get your groove on, I loose my mind
When you get your groove on, the whole world goes blind
So get your groove on girl, we'll go wild.
We'll go wild
LYRICS
Let me be easy to love
Let me be easy to love

            
            
Suggest correction
Creating personal tab
Creating personal tab
You can edit any tab online and save it as your Personal.

You can edit, replace or remove any tab part or add personal notes – all changes will be seen only by you.

Personal tabs can be accessed anytime from any device, even offline.
Learn more »
Give kudos to tab author, rate the tab!
1 2 3 4 5
comments
print report bad tab
1 comment total.
0 reply
williewuboy 51 Jan 29, 2011 03:19 AM

i was playing around,
and i figured out these sound more right in the verse:

e|--5---2---0---|
B|--5---2---0---|
G|--6---2---1---|
D|--7---4---2---|
A|--7---4---2---|
E|--5---2---0---|

guest
You may want to rate the tab now too:
select rating
Wanna post a correction for this tab? Suggest correction