Oops, an error
Loading. Please wait.

Got Velvet chords

259 views 1 this week
no commentswrite comment
1 2 3 4 5
2 more votes to show rating
add to favorites
×
Save as Personal and add changes to this tab that will be seen only by you. Learn more ›
×
You can save this tab as Personal to edit and correct it or add notes. All changes will be seen only by you. Learn more »
launch autoscroll
font size
0
reset
transpose
0
reset
display chords
guitar tuner
edit
Autoscroll
slow
fast
+/-
esc
set tempo
stop
Author
Difficulty
Strumming
There is no strumming pattern for this song yet. and get +5 IQ
-------------------------------------------------------------------------------
                             GOT VELVET - The Jezabels
-------------------------------------------------------------------------------
Tabbed by: ericamcn

Tuning: standard

G F Am G (x4)

     C   G
Well bravo,
                       Am    F
You lit a light in my life,
                      Am    G
Raised them chips and railroads,
                     Am     F
Headed off into the night.
                           Am    G
But you were just like the government,
              Am     F
Lying all the time,
                          Am       G
With a shattered piece of way-back-when
                       C      F
Stuck, forever in your mind.

                   G         F
When, baby, it was you and me,
Am                G                         F
One step forward, two step fighting infidelity,
      Am        G
Which always is velvet-covered.

C  G
I woke,
                Am    F
I awoke into a ghost
                Am    G
Of a ship that sailed,
                         Am   F
But I'ma laugh it up the most,
                           Am    G
'Cause I no longer have to worry
                          C     F
'Bout the shadows on your walls.
                     Am        G
Can you remember how proud we were
                 F
Right before the fall?

                   G         F
When, baby, it was you and me,
Am                G                         F
One step forward, two step fighting infidelity,
        Am             G
Though, truly we don't mind
                        F
Sleeping on a different bed,
Am              G
Long as you got velvet covers.
                F
Shouting it out to remind you,
Am             G
Hangin' it out to dry.


G F Am G  (x4) OR play tabbed solo

e|---------------------------------------------------------------------------|
B|------------------------------------10-------------------------------------|
G|-------9--------------------------9----12-9--------------------------------|
D|-10-12---12-10---12-10-12---10-12-----------12-10-12-----------------------|
A|---------------12----------------------------------------------------------|
E|---------------------------------------------------------------------------|

e|---------------------------------------------------------------------------|
B|------------------------------------10-------------------------------------|
G|-------9--------------------------9----12-9--------------------------------|
D|-10-12---12-10---12-10-12---10-12-----------12-10-12-----------------------|
A|---------------12----------------------------------------------------------|
E|---------------------------------------------------------------------------|

e|-------------10-12-------10------10-12-17-15-12-10----10-------------------|
B|-------10-13-------10-13------13-------------------13----------------------|
G|-12-12---------------------------------------------------------------------|
D|---------------------------------------------------------------------------|
A|---------------------------------------------------------------------------|
E|---------------------------------------------------------------------------|

e|-------------10-12-------10------10-12-17-15-12-10----10-------------------|
B|-------10-13-------10-13------13-------------------13----------------------|
G|-12-12---------------------------------------------------------------------|
D|---------------------------------------------------------------------------|
A|---------------------------------------------------------------------------|
E|---------------------------------------------------------------------------|

--quiet; lyrical-- G F Am G (x2)
                   G       F
When, baby, it was you and me,
Am                G                         F
One step forward, two step fighting infidelity,
        Am             G
Though, truly we don't mind
                        F
Sleeping on a different bed,
Am              G
Long as you got velvet covers.
                F
Shouting it out to remind you,
Am             G
Hangin' it out to dry

G F Am G until end


            
            
Suggest correction
Creating personal tab
Creating personal tab
You can edit any tab online and save it as your Personal.

You can edit, replace or remove any tab part or add personal notes – all changes will be seen only by you.

Personal tabs can be accessed anytime from any device, even offline.
Learn more »
Give kudos to tab author, rate the tab!
1 2 3 4 5
comments
print report bad tab
guest
You may want to rate the tab now too:
select rating
Wanna post a correction for this tab? Suggest correction