Oops, an error
Loading. Please wait.

Time To Dance chords

400 views 9 this week
no commentswrite comment
1 2 3 4 5
x 3
add to favorites
×
Save as Personal and add changes to this tab that will be seen only by you. Learn more ›
×
You can save this tab as Personal to edit and correct it or add notes. All changes will be seen only by you. Learn more »
launch autoscroll
font size
0
reset
transpose
0
reset
display chords
guitar tuner
edit
Autoscroll
slow
fast
+/-
esc
set tempo
stop
Strumming
There is no strumming pattern for this song yet. and get +5 IQ
-------------------------------------------------------------------------------
                             TIME TO DANCE - The Jezabels
-------------------------------------------------------------------------------
Tabbed by: ericamcn

Tuning: standard

Intro (palm muted)
e|------------5-5-5-------5-5-5------|
B|----2-3-5--------2-3-5-------2-3-5-|
G|-----------------------------------|
D|-----------------------------------|repeat
A|-----------------------------------|
E|-----------------------------------|


D F#m A Bm    (x2)

D              F#m
 Great coat, I love that hat
      A                           Bm
Maybe that could bring my passion back
D                F#m
 What's that? I stumbled on now
   A                  Bm
A pebble lying on my track.

D F#m   Wa-oh   A Bm

D                 F#m
 The one time the moment was mine
    A                      Bm
The thrill of it was all I saw
D                      F#m
 But suns rise and the shift
                      A                    Bm
Of the tides and the glory days were no more

D                      F#m
 When you work so hard,
A                 Bm
 Say what's the point in having all that gas?
D                     F#m
 When you work so hard,
A                 Bm
 Say what's the point in doing all that jazz?

---- play chords D F#m A Bm (x2) or play following riff (x2) ---- 
e|---------------------------------------------------------------------------|
B|---------------------------------------------------------------------------|
G|---------------------------------------------------------------------------|
D|-12-12-12-12-12-12-11-9-------9-11-11-11-11-11-11-9-9----------------------|
A|------------------------12-12----------------------------------------------|
E|---------------------------------------------------------------------------|

        D
You say, I need help cause
    F#m
I'm dreaming too much cause
      A                         Bm
I'm drifting with my mental health
D                        F#m
 Well good luck with the natives on that but
  A                              Bm
I think we might want something else

D                      F#m
 When you work so hard,
A                 Bm
 Say what's the point in having all that gas?
D                     F#m
 When you work so hard,
A                 Bm
 Say what's the point in doing all that jazz?

D                        F#m
 And you cry your eyes out
A             Bm                       D
 Hey come on baby, where's a second chance
                         F#m
And you cry your eyes out,
A             Bm
 Hey come on tell me when it's time to dance?

---- play chords G Bm D Em (x2) or play following riff (x2) ----
e|---------------------------------------------------------------------------|
B|---------------------------------------------------------------------------|
G|-12-12-12-12-12-12-11-9-------9-11-11-11-11-11-11-9-9----------------------|
D|------------------------12-12----------------------------------------------|
A|---------------------------------------------------------------------------|
E|---------------------------------------------------------------------------|

    G                                     Bm
And oh, the beat goes on, the streets go cold
                      D
You can't go home, no matter how you try, the beat goes
             Em       G               
The beat goes on. And oh,the big bad world,
             Bm             
You can't go home, the streets go cold.
   D                                              Em
No matter how you try, the beat goes, the beat goes on

---- play chords G Bm D Em (x2) or play following riff (x2) ----
e|---------------------------------------------------------------------------|
B|---------------------------------------------------------------------------|
G|-12-12-12-12-12-12-11-9-------9-11-11-11-11-11-11-9-9----------------------|
D|------------------------12-12----------------------------------------------|
A|---------------------------------------------------------------------------|
E|---------------------------------------------------------------------------|

Can you tell me when it's time to dance?
Can you tell me when it's time?

A               Bm              D         Em
 Cause I need a lover I can't find in you
A             Bm                D        Em
 I need some kinda love worth dancing to
A             Bm             D           Em
 Hey come on baby, let your hair hang down
A           Bm              D           Em     
 I need to find some kinda love

G Bm D Em   (x4)



            
            
Suggest correction
Creating personal tab
Creating personal tab
You can edit any tab online and save it as your Personal.

You can edit, replace or remove any tab part or add personal notes – all changes will be seen only by you.

Personal tabs can be accessed anytime from any device, even offline.
Learn more »
Give kudos to tab author, rate the tab!
1 2 3 4 5
comments
print report bad tab
guest
You may want to rate the tab now too:
select rating
Wanna post a correction for this tab? Suggest correction