Oops, an error
Loading. Please wait.

Prom chords

version 2
version 2

Whole song

  • It is recommended to use two guitars.
445 views 18 this week
no commentswrite comment
1 2 3 4 5
3 more votes to show rating
add to favorites
×
Save as Personal and add changes to this tab that will be seen only by you. Learn more ›
×
You can save this tab as Personal to edit and correct it or add notes. All changes will be seen only by you. Learn more »
launch autoscroll
font size
0
reset
transpose
0
reset
simplify chords
display chords
guitar tuner
edit
Autoscroll
slow
fast
+/-
esc
set tempo
stop
Author
Difficulty
About this tab version
It is recommended to use two guitars. Was this info helpful? Yes No
Strumming
There is no strumming pattern for this song yet. and get +5 IQ
The Juans - Prom

Chords:

G      320033
Cadd9  x32033
C      x32010 or x355xx
Em     022033 or x799xx
D      x00232 or x577xx

[Verse]
G        Cadd9         Em             D
halika na, hawakan ang aking kamay at sabay maglakbay
G        Cadd9          Em                  D
iwanan na, kalimutan na ang mga problema at sakit na 'yong nadarama

[Refrain]
Em   D      Cadd9    
ohhhh tatakbo, lalayo
Em   D         Cadd9
ohhhh kasama mong, tutungo

[Chorus]
     G                  Cadd9
isasayaw ka sa ulap, damhin ang hangin
    Em                  D
ang ihip na nagsislbing himig natin
     G                  Cadd9
Kasabay ng tibok ng mga puso nating
   Em                    D
nagniningning ang mga bituin

    G       Cadd9  Em       D
e|--------7-8~-8~-7---------10~-10~-8-7~-|
B|--8~-8~----------10~-10~-8-------------|
G|---------------------------------------|
D|---------------------------------------|
A|---------------------------------------|
E|---------------------------------------|
                   nagniningning ang mga bituin

[Verse 2]
G            Cadd9
oh kay sayang 
             Em                  D
makita ang liwanag ng buwan sa iyong mga mata
G         Cadd9               Em               D
alam ko na iyong nadarama ang init na dulot ng ating pagmamahal

[Refrain] 
(You can use power chords here)
Em   D      Cadd9
ohhhh tatakbo, lalayo
Em   D         Cadd9
ohhhh kasama mong, tutungo

[Chorus]
     G                  Cadd9
isasayaw ka sa ulap, damhin ang hangin
    Em               D
ang ihip na nagsislbing himig natin
     G                  Cadd9
Kasabay ng tibok ng mga puso nating
   Em                    D
nagniningning ang mga bituin

[Bridge]
    G       Cadd9  Em7      D
e|--------7-8~-8~-7---------10~-10~-8-7~-|
B|--8~-8~----------10~-10~-8-------------|
G|---------------------------------------|
D|---------------------------------------|
A|---------------------------------------|
E|---------------------------------------|

    G       Cadd9  Em7      D
e|--7~-7~-7-8~-8~-7---------10~-10~-8-7~-|
B|-----------------10~-10~-8-------------|
G|---------------------------------------|
D|---------------------------------------|
A|---------------------------------------|
E|---------------------------------------|

[Soft/Bass only]
C  Em  D
ohhhhhhhhh
C  Em  D
ohhhhhhhhh
C  Em  D
ohhhhhhhhh
C  Em  D
ohhhhhhhhh

(Guitar/s you can use power chords here too)
C  Em  D
ohhhhhhhhh
C  Em  D
ohhhhhhhhh
C  Em  D
ohhhhhhhhh
C  Em  D
ohhhhhhhhh

[Chorus]
       (Pause)       Cadd9
isasayaw ka sa ulap, damhin ang hangin
    Em                 D
ang ihip na nagsisbing himig natin
     G                  Cadd9
Kasabay ng tibok ng mga puso nating
   Em                  D
nagniningning ang mga bituin

[Outro]
    G       Cadd9  Em       D
e|--------7-8~-8~-7---------10~-10~-8-7~-|
B|--8~-8~----------10~-10~-8-------------|
G|---------------------------------------|
D|---------------------------------------|
A|---------------------------------------|
E|---------------------------------------|

    G       Cadd9  Em       D
e|--7~-7~-7-8~-8~-7---------10~-10~-8-7~-|
B|-----------------10~-10~-8-------------|
G|---------------------------------------|
D|---------------------------------------|
A|---------------------------------------|
E|---------------------------------------|
(Do the riff above while playing this part:)

      G            Cadd9
isasayaw ka sa ulap
      Em           D
isasayaw ka sa ulap
      G            Cadd9
isasayaw ka sa ulap
      Em           D
isasayaw ka sa ulap
      G
isasayaw ka sa ulap


************************************

| ~  Vibrato
 

************************************

            
            
Suggest correction
Creating personal tab
Creating personal tab
You can edit any tab online and save it as your Personal.

You can edit, replace or remove any tab part or add personal notes – all changes will be seen only by you.

Personal tabs can be accessed anytime from any device, even offline.
Learn more »
Give kudos to tab author, rate the tab!
1 2 3 4 5
comments
print report bad tab
guest
You may want to rate the tab now too:
select rating
Wanna post a correction for this tab? Suggest correction