Oops, an error
Loading. Please wait.

Have Mercy tab

6,109 views 12 this week
no commentswrite comment
1 2 3 4 5
1 last vote to show rating
add to favorites
×
Save as Personal and add changes to this tab that will be seen only by you. Learn more ›
×
You can save this tab as Personal to edit and correct it or add notes. All changes will be seen only by you. Learn more »
launch autoscroll
font size
0
reset
how to read this tab
guitar tuner
edit
Autoscroll
slow
fast
+/-
esc
set tempo
stop
Author
Difficulty
 Have Mercy by The Judds

Riff
                                           G  chord
--------------------------------------------------------|
--------------------------------------------------------|
---4H5--4--2--2--4--2--2--2--4--------------------------|
---0------0--0--0--0--0--0--0--0------------------------|
--------------------------------------------------------|
--------------------------------------------------------|


                                        A chord
-------------------------------------------------------|
-------------------------------------------------------|
---4H5--4--2--2--4--2--2--2--4-------------------------|
---0------0--0--0--0--0--0--0--0-----------------------|
-------------------------------------------------------|
-------------------------------------------------------|

                                         G  chord

-------------------------------------------------------|
-------------------------------------------------------|
---4H5--4--2--2--4--2--2--2--4-------------------------|
---0------0--0--0--0--0--0--0--0-----------------------|
-------------------------------------------------------|
-------------------------------------------------------|


-----------------------------------------------------------|
-----------------------------------------------------------|
---4H5--4--2--2--4--2--2--2--4----4--3--2--1---------------|(Hold Last note)
---0------0--0--0--0--0--0--0--0---------------------------|
-----------------------------------------------------------|
-----------------------------------------------------------|

H - Hammer on


Verse:

(D  G  D  A) 2 X


Chorus:

(D  G D   A) 2x

Have mercy on me ......


Intro Riff

Verse:

Chorus:

Intro Riff

Verse

Chorus:

Intro Riff

Its easier to tab like the above, if you need the lyrics here they are:
Have Mercy

I was standing in line at the city bus stop
Soaked to the skin from ev'ry rain drop
I see you driving by just like a phantom jet
With your arm around some little brunette
You say you won't be home because you're working late
Honey, I'm no fool, you've been out on a date
The lipstick on your collar gives the game away
It's strawberry red and mine's pink rose

(Chorus)

Have mercy on me
You treat me so bad I'm in misery
It's breaking my heart, can't you see
Baby, baby have mercy on me

Well I called you up on the telephone
I could hear you was playin' Haggard and Jones
I knew right then that there was something wrong
There's only one reason you play cheatin' songs

(Repeat Chorus)

Went to the bank with my little check book
The cashier he gave me the strangest look
He said you ain't got no money 'cause you're over drawn
Your man took it all and he's done gone

(Repeat Chorus)
Suggest correction
Creating personal tab
Creating personal tab
You can edit any tab online and save it as your Personal.

You can edit, replace or remove any tab part or add personal notes – all changes will be seen only by you.

Personal tabs can be accessed anytime from any device, even offline.
Learn more »
Give kudos to tab author, rate the tab!
1 2 3 4 5
comments
print report bad tab
guest
You may want to rate the tab now too:
select rating
Wanna post a correction for this tab? Suggest correction