Oops, an error
Loading. Please wait.

Is Patience Still Waiting bass

166 views 3 this week
no commentswrite comment
1 2 3 4 5
3 more votes to show rating
add to favorites
×
Save as Personal and add changes to this tab that will be seen only by you. Learn more ›
×
You can save this tab as Personal to edit and correct it or add notes. All changes will be seen only by you. Learn more »
launch autoscroll
font size
0
reset
guitar tuner
edit
Autoscroll
slow
fast
+/-
esc
set tempo
stop
+++++++++++++++++++++++++++++++++++++++++++++++++++
| The Juliana Theory- Is Patience Still Waiting ? |
+++++++++++++++++++++++++++++++++++++++++++++++++++

Tuning: Drop D (DADG)

Intro
"Will ever be time enough?"
1.
G|-------|
D|-------|
A|-2-0~--|
D|-------|

2.
G|----------------------------------------|
D|----------------------------------------|
A|------5~---------5~--2-222-222-22-2-0~--|--x3
D|-0000-------0000------------------------|

Pre-Chorus
"Is patience still waiting?"
3.
G|------------------------------------------------------------|
D|------------------------------------------------------------|
A|---------------------------------------------------------0~-|
D|-22222222-22222222-55555555-55555555-22222222-2222-2-4-5~---|

Chorus
"Will I wait on my knees?"
4.
G|-------------------------------------------------------------------------|
D|-------------------------------------------------------------------------|
A|-------------------------------------------------------------------------|
D|-55555555-55555555-00000000-00000000-55555555-55555555-00000000-00000000-|

"Is patience still waiting?"
5.
G|------------------------------------------------------------|
D|------------------------------------------------------------|
A|---------------------------------------------------------0~-|
D|-22222222-22222222-55555555-55555555-22222222-2222-2-4-5~---|

Verse
"Are you laughing at us today?"
6.
G|----------------------------------------|
D|----------------------------------------|
A|------5~---------5~--2-222-222-22-2-0~--|--x4
D|-0000-------0000------------------------|

Pre-Chorus
"Is patience still waiting?"
7.
G|------------------------------------------------------------|
D|------------------------------------------------------------|
A|---------------------------------------------------------0~-|
D|-22222222-22222222-55555555-55555555-22222222-2222-2-4-5~---|

Chorus
"Will I wait on my knees?"
8.
G|-------------------------------------------------------------------------|
D|-------------------------------------------------------------------------|
A|-------------------------------------------------------------------------|
D|-55555555-55555555-00000000-00000000-55555555-55555555-00000000-00000000-|

"Is patience still waiting?"
9.
G|------------------------------------------------------------|
D|------------------------------------------------------------|
A|---------------------------------------------------------0~-|
D|-22222222-22222222-55555555-55555555-22222222-2222-2-4-5~---|

Bridge
"Come on..."
10.
G|---------------------------|
D|---------------------------|
A|---------------------------|
D|-00x----00x----00x----00x--|

"COME ON!"
11.
G|-----------------------------------------------|
D|-----------------------------------------------|
A|-------------------------00x--00x--------------|--x2
D|-00x--00x----44x--44x----------------00x--00x--|

2:42
12.
G|-------------------------------------|
D|-------------------------------------|
A|-------------------00000000-0000-----|--x4
D|-00000000-00000000--------------5555-|

"Will you ever have all you want?
13.
G|----------------------------------------|
D|----------------------------------------|
A|------5~---------5~--2-222-222-22-2-0~--|--x4
D|-0000-------0000------------------------|

14.
G|---------|
D|---------|
A|---------|
D|-0~------|

Letra:

Will ever be time enough? 
Or are we just too naive? 
I haven't just given up.
Oh God, I still believe.

Is patience still waiting? Will I wait on my knees too? 

Are you laughing at us today? 
And is this just one big game? 
Now cash me in while you can. 
We never were the same.

Come on. 

Will you ever have all you want? 
And are we just next in line? 
Don't throw out your one good chance. 
You only have this time.

+++++++++++++++++++++++++++++++++
| RaiLeff                       |
| Underground__Dora@Hotmail.Com |
+++++++++++++++++++++++++++++++++

            
            
Suggest correction
Creating personal tab
Creating personal tab
You can edit any tab online and save it as your Personal.

You can edit, replace or remove any tab part or add personal notes – all changes will be seen only by you.

Personal tabs can be accessed anytime from any device, even offline.
Learn more »
Give kudos to tab author, rate the tab!
1 2 3 4 5
comments
print report bad tab
guest
You may want to rate the tab now too:
select rating
Wanna post a correction for this tab? Suggest correction