Oops, an error
Loading. Please wait.

To The Tune Of 5000 Screaming Children bass

version 1
version 1

Whole song

Interactive

93 views 1 this week
no commentswrite comment
1 2 3 4 5
3 more votes to show rating
add to favorites
×
Save as Personal and add changes to this tab that will be seen only by you. Learn more ›
×
You can save this tab as Personal to edit and correct it or add notes. All changes will be seen only by you. Learn more »
launch autoscroll
font size
0
reset
guitar tuner
edit
Autoscroll
slow
fast
+/-
esc
set tempo
stop
Author
Difficulty
Band- Juliana Theory
Song- To the Tune of 5000 Screaming Children
There ya go

Intro x2
G----------------------------------------------------------------|
D----------------------------------------------------------------|
A---2-2-2-2-2-2/12-12-12-12-12-122-2-2-2-2-2/12-12-12-12-12-12---|
E----------------------------------------------------------------|

“We’re not misinformed or misdirected...”


Chorus x4
G-----------------------------------------------|
D-----------------------------------------------|
A---2-2-2-2-2-2-2-2-----------------------------|
E--------------------5-5-5-5-5-5-5-5------------|

The break after the chorus

Break #1 x8
G----------------------------------------------|
D----------------------------------------------|
A---2-2-2-2-2-5-5-4-4--------------------------|
E---------------------5-5-5-5------------------|

After the break

Break #2 x4
G-------------------------------------------------------------------|
D-------------------------------------------------------------------|
A---5-5-5-5-5-5-5-5-4-4-4-4---------2-2-2-2-2-2-2-2-2-2-2-2-2-2-2-2-|
E---------------------------5-5-5-5---------------------------------|

Do the intro again x2
Chorus x4
Break #1 x8
Break #2 x3
Then

G---------------|
D---------------|
A---5---4-----2-|
E----------5----|

(rythem should be easy to understand listening to the song)

Bridge #1
   x1
G----------------------------------------------------------|
D----------------------------------------------------------|
A---2-2-----2-2--2-2--2-2-----2-2-----2-2--2-2-----2-2-----|
E----------------------------------------------------------|

Bridge #1 (cont’d)
G-------------------------------------|
D-------------------------------------|
A---2-2--2-2--2-2-----2-2-----2-2-----|
E-------------------------------------|


Bridge #2
  x2
G--------------------------|
D--------------------------|
A---2-2--------------------|
E------------5-5--5-5--5-5-|

Intro x2
Chorus x4

End with

  x1
G----------------------------|
D----------------------------|
A---2-2--2-2--5-5--4-4-------|
E-----------------------5--5-|

            
            
Suggest correction
Creating personal tab
Creating personal tab
You can edit any tab online and save it as your Personal.

You can edit, replace or remove any tab part or add personal notes – all changes will be seen only by you.

Personal tabs can be accessed anytime from any device, even offline.
Learn more »
Give kudos to tab author, rate the tab!
1 2 3 4 5
comments
print report bad tab
guest
You may want to rate the tab now too:
select rating
Wanna post a correction for this tab? Suggest correction