Oops, an error
Loading. Please wait.

Creepy Cool chords

version 2
version 2

Whole song

100 views 6 this week
no commentswrite comment
1 2 3 4 5
3 more votes to show rating
add to favorites
×
Save as Personal and add changes to this tab that will be seen only by you. Learn more ›
×
You can save this tab as Personal to edit and correct it or add notes. All changes will be seen only by you. Learn more »
launch autoscroll
font size
0
reset
transpose
0
reset
simplify chords
display chords
guitar tuner
edit
Autoscroll
slow
fast
+/-
esc
set tempo
stop
Author
Difficulty
Strumming
There is no strumming pattern for this song yet. and get +5 IQ
[Intro]
C     C7     D#

(Guitar)
E|---------------------------|
B|---------------------------|
G|-5--5-5--3-3---7--7-7--7-7-|
D|-5--5-5--5-5---7--7-7--7-7-|
A|-3--3-3--3-3---5--5-5--5-5-|
E|---------------------------|

[Verse]
C       C7           D#
Move it to the window
C       C7           D#
Sound of symphonies pulsating
C       C7           D#
Move it to the big house
C       C7           D#
I know you love me when I'm wasted

[Pre-Chorus]
Dm                  A7    A    A7    A
Don't worry baby boy
Dm                  A7    A    A7    A
Don't even think about it

[Link]
A7

[Chorus]
Bb                     A  A7   Dm7  Dm
  la lala la la la lalala la la la lalala la la
F        C/G
I can't help but lose

(Bass)
G|----------------------------------------------|
D|----------------------------------------------|
A|----------------------------------------------|
E|-6-6--6-6-5-5--8-5-8-10-10--10-10-13-13-15-\--|

Bb                     A  A7   Dm7  Dm
  la lala la la la lalala la la la lalala la la
F        C/G
Do your Cherry Blues
Bb                     A  A7   Dm7  Dm
  la lala la la la lalala la la la lalala la la
F        C/G
I feel something new
Bb                     A  A7   Dm7  Dm
  la lala la la la lalala la la la lalala la la
A7     Dm7    F
Creepy cool

[Verse]
C       C7           D#
Everything was fine, oh
C       C7           D#
Everything was easy peachy
C       C7           D#
Is it cause you know so
C       C7           D#
Cause you're glistening

[Pre-Chorus]
Dm                  A7    A    A7    A
Don't worry baby boy
Dm                  A7    A    A7    A
Don't even think about it

[Chorus]
Bb                     A  A7   Dm7  Dm
  la lala la la la lalala la la la lalala la la
F        C/G
I can't help but lose
Bb                     A  A7   Dm7  Dm
  la lala la la la lalala la la la lalala la la
F        C/G
Do your Cherry Blues
Bb                     A  A7   Dm7  Dm
  la lala la la la lalala la la la lalala la la
F        C/G
I feel something new
Bb                     A  A7   Dm7  Dm
  la lala la la la lalala la la la lalala la la
A7     Dm7    F
Creepy cool

[Instrumental]
Em/B   C
C

(Guitar)
E|--------12--------------12--------------12-8-8--------12-8-8--8--8--8--8--|
B|-8-8-10----10-10-8-8-10----10-10-8-8-10--------8-8-10---------10-10-10-10-|
G|--------------------------------------------------------------------------|
D|--------------------------------------------------------------------------|
A|--------------------------------------------------------------------------|
E|--------------------------------------------------------------------------|

[Pre-Chorus]
Dm                  A7    A    A7    A
Don't worry baby boy
Dm                  A7    A    A7    A
Don't even think about it

[Chorus]
Bb                     A  A7   Dm7  Dm
  la lala la la la lalala la la la lalala la la
F        C/G
I can't help but lose
Bb                     A  A7   Dm7  Dm
  la lala la la la lalala la la la lalala la la
F        C/G
Do your Cherry Blues
Bb                     A  A7   Dm7  Dm
  la lala la la la lalala la la la lalala la la
F        C/G
I feel something new
Bb                     A  A7   Dm7  Dm
  la lala la la la lalala la la la lalala la la
A7     Dm7    F
Creepy cool
Creepy cool

C

(Guitar)
E|--------12-8----------12-8----8--8--8--8--|
B|-8-8-10--------8-8-10---------10-10-10-10-|
G|------------------------------------------|
D|------------------------------------------|
A|------------------------------------------|
E|------------------------------------------|



************************************

| \  Slide down
 

************************************

            
            
Suggest correction
Creating personal tab
Creating personal tab
You can edit any tab online and save it as your Personal.

You can edit, replace or remove any tab part or add personal notes – all changes will be seen only by you.

Personal tabs can be accessed anytime from any device, even offline.
Learn more »
Give kudos to tab author, rate the tab!
1 2 3 4 5
comments
print report bad tab
guest
You may want to rate the tab now too:
select rating
Wanna post a correction for this tab? Suggest correction