Oops, an error
Loading. Please wait.

De Legal Bass

7 views 1 this week
no commentswrite comment
1 2 3 4 5
3 more votes to show rating
add to favorites
launch autoscroll
font size
0
reset
guitar tuner
×
Best way to learn
"De Legal"
Autoscroll
slow
fast
+/-
esc
set tempo
stop
The Kagas

De legal:

Parte 1: ( Kiero ir contigo hasta akabar el pacharan...)

G-------------------
D-------------------  x8
A-----55-5----66----
E-33-3----66-6------

Parte 2: ( Gracias por enseñarme hoy...)

G-------------------
D-------------------  x2 
A?3*--------5*------   
E-------------------

   * se repite un montón de veces

Parte 1  x6

Parte 2  x2

Estribillo:  (Hablame del problema,de la drogadicción...)

G----------------------------------
D----------------------------------  x4
A-5-5-55-----------3-3-33----------
E---------55-55-5---------33-33-3?-

Parte 1 x6

Parte 2 x2

Estribillo x6

Parte 1 x3

Final:

G----------------------
D----------------------
A-----55-5----665------
E-33-3----6-6----3-----
Suggest correction
Give kudos to tab author, rate the tab!
1 2 3 4 5
comments
print report bad tab
guest
You may want to rate the tab now too:
select rating
Wanna post a correction for this tab? Suggest correction