Oops, an error
Loading. Please wait.

Poisonous Emblem Tab

178 views 3 this week
no commentswrite comment
1 2 3 4 5
please rate
add to favorites
launch autoscroll
font size
0
reset
how to read this tab
guitar tuner
Autoscroll
slow
fast
+/-
esc
set tempo
stop
Help us to improve Ultimate-Guitar.com Take our survey!
×
Author
Difficulty
novice
The KBC - Poisonous Emblem


Intro and verse Guitar 2 00:00
PM(at 00:22 and 00:35 some tones without PM)
          "HELLO! We are looking..."
  A
|---------------------------------------------|
|---------------------------------------------|
|---------------------------------------------|
|---------------------------------------------|
|-0-0-0-0-0-0-0-0-0-0-0-0-0-0-0-0-0-0-0-0-0-0-|
|---------------------------------------------|


Bridge
Guitar 1 00:37
"Wooohuuhu"
        A     Bm    C
|---------------------------------------------|
|---------------------------------------------|
|-------14----16----17------------------------|
|--------x-----x-----x------------------------|
|-------12*8--14*8--15*12---------------------|
|---------------------------------------------|

        A     Bm    C     F   E
|---------------------------------------------|
|-------------------------18---17-------------|
|-------14----16----17-----x----x-------------|
|--------x-----x-----x----15*4-14*4-----------|
|-------12*8--14*8--15*8----------------------|
|---------------------------------------------|



Guitar 2
        A     Bm    C
|---------------------------------------------|
|---------------------------------------------|
|-------2-----4-----5-------------------------|
|-------2-----4-----5-------------------------|
|-------0*8---2*8---3*12----------------------|
|---------------------------------------------|

        A     Bm    C     F   E
|---------------------------------------------|
|---------------------------------------------|
|-------2-----4-----5-------------------------|
|-------2-----4-----5-----3---2---------------|
|-------0*8---2*8---3*8---3---2---------------|
|-------------------------1*4-0*4-------------|

Verse 2 00:52
Both guitars
(Listen for strumming. Repeat thorugh verse!)
        A  A    
|-------12x12x-----------------------------------|
|-------12x13x-----------------------------------|
|-------14x14x-----------------------------------|
|-------14x14x-----------------------------------|
|-------12x12x-----------------------------------|
|-------12x12x-----------------------------------|

Chorus 01:22
"It's time for you to stand up.."
        A     Bm    C
|---------------------------------------------|
|---------------------------------------------|
|-------14----16----17------------------------|
|--------x-----x-----x------------------------|
|-------12*8--14*8--15*12---------------------|
|---------------------------------------------|
        A     Bm    C     F   E
|---------------------------------------------|
|-------------------------18---17-------------|
|-------14----16----17-----x----x-------------|
|--------x-----x-----x----15*4-14*4-----------|
|-------12*8--14*8--15*8----------------------|
|---------------------------------------------|

Guitar 2
        A     Bm    C
|---------------------------------------------|
|---------------------------------------------|
|-------2-----4-----5-------------------------|
|-------2-----4-----5-------------------------|
|-------0*8---2*8---3*12----------------------|
|---------------------------------------------|
        A     Bm    C     F   E
|---------------------------------------------|
|---------------------------------------------|
|-------2-----4-----5-------------------------|
|-------2-----4-----5-----3---2---------------|
|-------0*8---2*8---3*8---3---2---------------|
|-------------------------1*4-0*4-------------|


Solo 01:51
|-------------------------10-12----10-12----10-12----10-12----10-12-|
|-------------------10-12-------10-------10-------10-------10-------|
|--------------9-12-------------------------------------------------|
|---------7-10------------------------------------------------------|
|----7-10-----------------------------------------------------------|
|-------------------------------------------------------------------|

|-------------------------10-12----10-12----10-12----10-13----10-12-|
|-------------------10-12-------10-------10-------10-------10-------|
|--------------9-12-------------------------------------------------|
|---------7-10------------------------------------------------------|
|----7-10-----------------------------------------------------------|
|-------------------------------------------------------------------|

Then it's only drums and bass from 02:07 to 02:36.

Give your guitar som feedback and play:
        A     Bm    C
|---------------------------------------------|
|---------------------------------------------|
|-------14----16----17------------------------|
|--------x-----x-----x------------------------|
|-------12*8--14*8--15*12---------------------|
|---------------------------------------------|
        A     Bm    C     F   E
|---------------------------------------------|
|-------------------------18---17-------------|
|-------14----16----17-----x----x-------------|
|--------x-----x-----x----15*4-14*4-----------|
|-------12*8--14*8--15*8----------------------|
|---------------------------------------------|

Guitar 2
        A     Bm    C
|---------------------------------------------|
|---------------------------------------------|
|-------2-----4-----5-------------------------|
|-------2-----4-----5-------------------------|
|-------0*8---2*8---3*12----------------------|
|---------------------------------------------|
        A     Bm    C     F   E
|---------------------------------------------|
|---------------------------------------------|
|-------2-----4-----5-------------------------|
|-------2-----4-----5-----3---2---------------|
|-------0*8---2*8---3*8---3---2---------------|
|-------------------------1*4-0*4-------------|


Solo again 03:06
|-------------------------10-12----10-12----10-12----10-12----10-12-|
|-------------------10-12-------10-------10-------10-------10-------|
|--------------9-12-------------------------------------------------|
|---------7-10------------------------------------------------------|
|----7-10-----------------------------------------------------------|
|-------------------------------------------------------------------|

|-------------------------10-12----10-12----10-12----10-13----10-12-|
|-------------------10-12-------10-------10-------10-------10-------|
|--------------9-12-------------------------------------------------|
|---------7-10------------------------------------------------------|
|----7-10-----------------------------------------------------------|
|-------------------------------------------------------------------|

|-------------------------10-12----10-12----10-12----10-12----10-12-|
|-------------------10-12-------10-------10-------10-------10-------|
|--------------9-12-------------------------------------------------|
|---------7-10------------------------------------------------------|
|----7-10-----------------------------------------------------------|
|-------------------------------------------------------------------|

Outro 03:29
|-------------------------10-12--10-8-10-8-7---7-5-7-5-3-5~---------|
|-------------------10-12--------10-8-10-8-7---7-5-7-5-3-5~---------|
|--------------9-12-------------------------------------------------|
|---------7-10------------------------------------------------------|
|----7-10-----------------------------------------------------------|
|-------------------------------------------------------------------|

Suggest correction
What's this?
You can suggest a correction to this tab. Community and Mods will review your correction and vote to approve or reject it.
comments
We did not receive enough feedback on this tab! Please rate:
print report bad tab
1 2 3 4 5
guest
You may want to rate the tab now too:
select rating
Please do not post tabs as comments. Select "correction" instead!