Oops, an error
Loading. Please wait.

All The Pretty Faces Bass Tab

version 1
version 1

Whole song

Interactive

1,947 views 3 this week
1 commentread comment
1 2 3 4 5
please rate
add to favorites
launch autoscroll
font size
0
reset
guitar tuner
Tab Pro tools
  • play this tab
  • loop segment
  • change instrument
  • show fretboard
  • metronome
×
Best way to learn
"All The Pretty Faces"
Autoscroll
slow
fast
+/-
esc
set tempo
stop
Difficulty
intermediate
All the Pretty Faces


G|-------------------------------------|
D|--89898989(x16)---1111-5555-1111-5555|
A|-------------------------------------|
E|-------------------------------------|

G|-------------------------------------|
D|-1111-5555-1111-5555-----------------|
A|-------------------------------------|
E|-------------------------------------|

G|-------------------------------------|
D|-5-7-8/5-----6/3----345--------------|
A|------------6------------------------|
E|-------------------------------------|

G|--55-5--88-8-------------------------|
D|--------------66-6-66----------------|
A|-------------------------------------|
E|-------------------------------------|
                                                                                         
                                       X4
G|--55-5--77-7-------------------------|
D|--------------11-1-111---------------|
A|-------------------------------------|
E|-------------------------------------|

G|--1111--5555--1111--5555--1111--5555-|
D|-------------------------------------|
A|-------------------------------------|
E|-------------------------------------|

G|--8888888879/10-1010101010101010-----|
D|-------------------------------------|
A|-------------------------------------|
E|-------------------------------------|

G|--11/12-1212121212121212-------------|
D|-------------------------------------|
A|-------------------------------------|
E|-------------------------------------|

G|--1515151515151515—55555555-4/7/9----|
D|-------------------------------------|
A|-------------------------------------|
E|-------------------------------------|

G|--10101010/9\10101010----------------|
D|-------------------------------------|
A|-------------------------------------|
E|-------------------------------------|

G|----10—88888888-8-8-8-8--------------|
D|--9----------------------------------|
A|-------------------------------------|
E|-------------------------------------|

G|--1515151515151515-------------------|
D|-------------------------------------|
A|-------------------------------------|
E|-------------------------------------|

G|--55-5--88-8-------------------------|
D|--------------66-6-66----------------|
A|-------------------------------------|
E|-------------------------------------|
                                                                                         
                                     X4
G|--55-5--77-7-------------------------|
D|--------------11-1-111---------------|
A|-------------------------------------|
E|-------------------------------------|

G|--1111--5555--1111--5555--1111--5555-|
D|-------------------------------------|
A|-------------------------------------|
E|-------------------------------------|

G|--8888888879/10-1010101010101010-----|
D|-------------------------------------|
A|-------------------------------------|
E|-------------------------------------|

G|--11/12-1212121212121212-------------|
D|-------------------------------------|
A|-------------------------------------|
E|-------------------------------------|

G|--1515151515151515—55555555-4/7/9----|
D|-------------------------------------|
A|-------------------------------------|
E|-------------------------------------|

G|--10101010/9\10101010----------------|
D|-------------------------------------|
A|-------------------------------------|
E|-------------------------------------|

G|-12121212-12-12-12—12-12-12-12-12----|
D|-------------------------------------|
A|-------------------------------------|
E|-------------------------------------|

G|--1515151515151515-------------------|
D|-------------------1010101010101010--|
A|-------------------------------------|
E|-------------------------------------|

G|----—------------------9-10/12-------|
D|--12/8-10101010101010----------------|
A|-------------------------------------|
E|-------------------------------------|


G|---1212121212121212--1515151515151515|
D|-------------------------------------|
A|-------------------------------------|
E|-------------------------------------|

G|-55555555456/9-99999999—010/12-------|
D|-------------------------------------|
A|-------------------------------------|
E|-------------------------------------|


G|-1212121212121212-15151515151515-----|
D|-------------------------------------|
A|-------------------------------------|
E|-------------------------------------|

G|-88888888-79/10-10101010-------------|
D|-------------------------------------|
A|-------------------------1010-88-----|
E|-------------------------------------|

G|----—------12121212-12-12-12-12-12---|
D|--1010-8-----------------------------|
A|-------------------------------------|
E|-------------------------------------|

G|-1515151515151515--------------------|
D|-------------------------------------|
A|-------------------------------------|
E|-------------------------------------|

G|-55555555456/10-10101010—---------8--|
D|------------------------------10-----|
A|-------------------------11-9--------|
E|-------------------------------------|

G|-1212121212121212--1515151515151515--|
D|-------------------------------------|
A|-------------------------------------|
E|-------------------------------------|

G|--55-5--88-8-------------------------|
D|--------------66-6-66----------------|
A|-------------------------------------|
E|-------------------------------------|
                                                                                         
                                   X4
G|--55-5--77-7-------------------------|
D|--------------11-1-111---------------|
A|-------------------------------------|
E|-------------------------------------|
comments
We did not receive enough feedback on this tab! Please rate:
print report bad tab
1 2 3 4 5
1 comment total.
0 reply
wtmiller wrote on October 27 2015, 04:04 pm

this isn't the way the song is played I tried to play it a few times and there isn't any way its gonna work. fix it thank you

I want to post or [tab]
guest
You may want to rate the tab now too:
select rating
Please do not post tabs as comments. Select "correction" instead!