Oops, an error
Loading. Please wait.

All The Pretty Faces Tab

version 1
version 1

Whole song

Interactive

26,216 views 33 this week
3 commentsread comments
1 2 3 4 5
excellent!
x 12
add to favorites
launch autoscroll
font size
0
reset
how to read this tab
guitar tuner
Tab Pro tools
  • play this tab
  • loop segment
  • change instrument
  • show fretboard
  • metronome
Autoscroll
slow
fast
+/-
esc
set tempo
stop
Contributor
Difficulty
intermediate
All the Pretty Faces (B-side, studio version) - The Killers
tabbed by: Nick Van Den Broeke (nuke126@gmail.com)

flat tuning (half step down to Eb)

chords used:
Ab5: 4-6-6-x-x-x
Abm: 4-6-6-4-4-4
B:   2-2-4-4-4-2
B5:  7-9-9-x-x-x
C#m: 4-4-6-6-5-4
Ebm: 6-6-8-8-7-6
E5:  0-2-2-x-x-x
F#:  9-9-11-11-11-9
_______________________________________________________

eb|----------------------------------------|
bb|----------------------------------------|
gb|----------------------------------------|
db|--------2-------------------2-----------|
ab|-----2---------2---------2--------2-----|
Eb|--4---------4-----0---4--------4-----0--|


palm mute all "5" chords

     E5    B5    Ab5
eb|--x--x--x--x--x--x-x-x-x-x-x-x-x--|
bb|--x--x--x--x--x--x-x-x-x-x-x-x-x--|
gb|--x--x--x--x--x--x-x-x-x-x-x-x-x--|
db|--2--x--9--x--6--6-6-6-6-6-6-6-6--|  x 4
ab|--2--0--9--0--6--6-6-6-6-6-6-6-6--|
Eb|--0--0--7--0--4--4-4-4-4-4-4-4-4--|

Verse 1:

eb|--11-11-11-11-11-11-11-11-|
bb|--16-16-16-16-16-16-16-16-|  x 8
gb|--------------------------|

Help me out I need it
I don't feel like loving you no more
I don't feel like loving you no more

Guitar 1:

eb|----------------------------------------|
bb|----------------------------------------|
gb|----------------------------------------|
db|--------2-------------------2-----------|  
ab|-----2---------2---------2--------2-----|
Eb|--4---------4-----0---4--------4-----0--|

Guitar 2:

eb|--16----16----19----19----19----19----19----18-----|
bb|-----16----16----16----16----17----17----17----17--|
gb|---------------------------------------------------|

eb|--16----16----19----19----21----21----21----21-----|
bb|-----16----16----16----16----17----17----17----17--|
gb|---------------------------------------------------|

eb|--16----16----19----19----19----19----19----18-----|
bb|-----16----16----16----16----17----17----17----17--|
gb|---------------------------------------------------|

eb|--16----16----19----19----19----19----19----|
bb|-----16----16----16----16----17----17----17-|
gb|--------------------------------------------|

Verse 2:

eb|----------------------------------------|
bb|----------------------------------------|
gb|----------------------------------------|
db|--------2-------------------2-----------|  
ab|-----2---------2---------2--------2-----|
Eb|--4---------4-----0---4--------4-----0--|

Help me out I need it
I don't feel like touching her no more
Help me out I need it
I said, I don't feel like touching her no more

     E5    B5    Ab5
eb|--x--x--x--x--x--x-x-x-x-x-x-x-x--|
bb|--x--x--x--x--x--x-x-x-x-x-x-x-x--|
gb|--x--x--x--x--x--x-x-x-x-x-x-x-x--|
db|--2--x--9--x--6--6-6-6-6-6-6-6-6--|  x 4
ab|--2--0--9--0--6--6-6-6-6-6-6-6-6--|
Eb|--0--0--7--0--4--4-4-4-4-4-4-4-4--|

Well how did it happen
I've spent two long years in a strange, strange land
Well how did it happen
I'd do anything just to be your man

Chorus 1:

B                 C#m        Ebm
You're not going anywhere without me
      F#                              Abm
These trials don't prepare the error, no
Abm                C#m      Ebm
You're not telling anyone about me
       F#
And you shake and you bleed while I sing my song

Guitar 1:

eb|----------------------------------------|
bb|----------------------------------------|
gb|----------------------------------------|
db|--------2-------------------2-----------|  
ab|-----2---------2---------2--------2-----|
Eb|--4---------4-----0---4--------4-----0--|

Guitar 2:

eb|--16----16----19----19----19----19----19----18-----|
bb|-----16----16----16----16----17----17----17----17--|
gb|---------------------------------------------------|

     I don't feel like, i don't feel like, 

eb|--16----16----19----19----21----21----21----21-----|
bb|-----16----16----16----16----17----17----17----17--|
gb|---------------------------------------------------|

     I don't feel like lovin' you

eb|--16----16----19----19----19----19----19----18-----|
bb|-----16----16----16----16----17----17----17----17--|
gb|---------------------------------------------------|

     I don't feel like, i don't feel like, 

eb|--16----16----19----19----19----19----19----|
bb|-----16----16----16----16----17----17----17-|
gb|--------------------------------------------|

     I don't feel like lovin' you

Verse 3:

eb|----------------------------------------|
bb|----------------------------------------|
gb|----------------------------------------|
db|--------2-------------------2-----------|  
ab|-----2---------2---------2--------2-----|
Eb|--4---------4-----0---4--------4-----0--|

All the different places
Ringing out like a shotgun in my head
All the pretty faces
Ringing out well I just can't go to bed

     E5    B5    Ab5
eb|--x--x--x--x--x--x-x-x-x-x-x-x-x--|
bb|--x--x--x--x--x--x-x-x-x-x-x-x-x--|
gb|--x--x--x--x--x--x-x-x-x-x-x-x-x--|
db|--2--x--9--x--6--6-6-6-6-6-6-6-6--|  x 5
ab|--2--0--9--0--6--6-6-6-6-6-6-6-6--|
Eb|--0--0--7--0--4--4-4-4-4-4-4-4-4--|

Well how did it happen
I spent two long years in a strange strange land
How did it happen
I'd do anything just to be your man
I'd do anything just to be your man

Chorus 2:

B                 C#m        Ebm
You're not going anywhere without me
      F#                              Abm
These trials don't prepare the error, no
Abm               C#m      Ebm
You're not telling anyone about me
       F#
And you shake and you bleed while I sing my song

eb|-------------------------------------------------|
bb|-12----12----11----12----14----12----11----12----|
gb|----13----13----13----13----13----13----13----13-|
db|-------------------------------------------------|
ab|-------------------------------------------------|
Eb|-------------------------------------------------|

eb|-------------------------------------------------|
bb|-12----12----11---12----14----12----11----12-----|
gb|----9-----9-----9----9-----9-----9-----9-----9---|
db|-------------------------------------------------|
ab|-------------------------------------------------|
Eb|-------------------------------------------------|
    I don't feel like touching you

eb|-------------------------------------------------|
bb|-12----12----11----12----14----12----11----12----|
gb|-------------------------------------------------|
db|----13----13----13----13----13----13----13----13-|
ab|-------------------------------------------------|
Eb|-------------------------------------------------|
    I don't feel like touching you

eb|-------------------------------------------------|
bb|-12----12----11----12----14----12----11----12----|
gb|----11----11----11----11----11----11----11----11-|
db|-------------------------------------------------|
ab|-------------------------------------------------|
Eb|-------------------------------------------------|
    yoooooooooooooooouuuuuuuuuuuuuuuuuuuuuu

eb|-------------------------------------------------|
bb|-12----12----11----12----14----12----11----12----|
gb|----13----13----13----13----13----13----13----13-|
db|-------------------------------------------------|
ab|-------------------------------------------------|
Eb|-------------------------------------------------|
    I don't feel like touching you

eb|-------------------------------------------------|
bb|-12----12----11---12----14----12----11----12-----|
gb|----9-----9-----9----9-----9-----9-----9-----9---|
db|-------------------------------------------------|
ab|-------------------------------------------------|
Eb|-------------------------------------------------|
    I don't feel like touching you

eb|-------------------------------------------------|
bb|-12----12----11----12----14----12----11----12----|
gb|-------------------------------------------------|
db|----13----13----13----13----13----13----13----13-|
ab|-------------------------------------------------|
Eb|-------------------------------------------------|
    You     can't       tell       anyone

eb|-------------------------------------------|
bb|-12----12----11----12----14----12----11----|
gb|----11----11----11----11----11----11-------|
db|-------------------------------------------|
ab|-------------------------------------------|
Eb|-------------------------------------------|
    about  meeeeeeee

Chorus 3:

B                 C#m        Ebm
You're not going anywhere without me
F#                                    Abm
Help me out I need it (help me out I need it)
C#m                     Ebm
You can't tell anyone about me (help me out I need it)
F#
Help me out I need it

Guitar 1:

eb|----------------------------------------|
bb|----------------------------------------|
gb|----------------------------------------|
db|--------2-------------------2-----------|  x2
ab|-----2---------2---------2--------2-----|
Eb|--4---------4-----0---4--------4-----0--|

Guitar 2: 

eb|--16----16----19----19----19----19----19----18-----|
bb|-----16----16----16----16----17----17----17----17--|
gb|---------------------------------------------------|

eb|--16----16----19----19----21----21----21----21-----|
bb|-----16----16----16----16----17----17----17----17--|
gb|---------------------------------------------------|

eb|--16----16----19----19----19----19----19----18-----|
bb|-----16----16----16----16----17----17----17----17--|
gb|---------------------------------------------------|

eb|--16----16----19----19----19----19----19----|
bb|-----16----16----16----16----17----17----17-|  

eb|--16----16----19----19----19----19----19----18-----|
bb|-----16----16----16----16----17----17----17----17--|
gb|---------------------------------------------------|

     I don't feel like, i don't feel like, 

eb|--16----16----19----19----21----21----21----21-----|
bb|-----16----16----16----16----17----17----17----17--|
gb|---------------------------------------------------|

     I don't feel like lovin' you

eb|--16----16----19----19----19----19----19----18-----|
bb|-----16----16----16----16----17----17----17----17--|
gb|---------------------------------------------------|

     I don't feel like, i don't feel like, 

eb|--16----16----19----19-----19--|
bb|-----16----16----16----16--17--|
gb|-------------------------------|
db|-------------------------------|
ab|-------------------------------|
Eb|---------------------------0---|
     I don't feel like lovin' you    

comments
print report bad tab
3 comments total.
0 reply
an1ka wrote on March 18 2009, 04:42 pm

the killers rule

0 reply
Georgia_grillz wrote on April 25 2010, 04:28 am

Awesome tab for an awesome song, well done. Is there any way to play it with normal tuning though?

0 reply
Thrash.aholic wrote on January 22 2011, 05:01 pm

yeah for every note you would slide down 1 fret

I want to post or [tab]
guest
You may want to rate the tab now too:
select rating
Please do not post tabs as comments. Select "correction" instead!