Oops, an error
Loading. Please wait.

All The Pretty Faces bass

version 2
version 2

Whole song

Interactive

128 views 1 this week
no commentswrite comment
1 2 3 4 5
1 last vote to show rating
add to favorites
×
Save as Personal and add changes to this tab that will be seen only by you. Learn more ›
×
You can save this tab as Personal to edit and correct it or add notes. All changes will be seen only by you. Learn more »
launch autoscroll
font size
0
reset
guitar tuner
backing track
0:00
0:00
edit
Autoscroll
slow
fast
+/-
esc
set tempo
stop
All the Pretty Faces by The Killers
From albums Sam's Town (2006) and Sawdust (2007) 
Written by Brandon Flowers, Dave Keuning and Mark Stoermer
All rights belong to their respective owners

Tabbed by Jaakko Karppinen


Tuning: Half step down (D#G#C#F#)


I have based this tab on the bass track you can find in Youtube, so it should be pretty much 100% correct.

Legend:   x = muted note   . = accent note   R = rest   \ = slide down   / = slide up

Bass track: https://www.youtube.com/watch?v=Xn9oF841GMQ


Intro
|------------------------------------------------------------------|
|------------------------------------------------------------------|
|-11--9---11--9---11--9---11--9---11--9---11--9---11--9---11--9----|
|------------------------------------------------------------------|

|------------------------------------------------------------------|
|------------------------------------------------------------------|
|-11--9---11--9---11--9---11--9---11--9---11--9---11--9------------|
|---------------------------------------------------------11--9----|


Riff A
||----------------------------------------------------------------------||
||-o------------------------------------------------------------------o-||
||-o------------------------------------------------------------------o-|| 4X
||---0---0---0---0---7---7---7---7---4---4---4---4---4---4-4-4---4-4----||


Verse
|------------------------------------------------------------------|
|------------------------------------------------------------------|
|-------------------------------------------------------------5----|
|-4-------------------------------------------4-------6------------|

|------------------------------------------------------------------|
|------------------------------------------------------------------|
|-6---------------------------------------------------7-------6----|
|------------------------------------------------------------------|

|------------------------------------------------------------------|
|------------------------------------------------------------------|
|-4---------------------------------------------------4-------5----|
|------------------------------------------------------------------|

|------------------------------------------------------------------|
|------------------------------------------------------------------|
|-6----------------------------------------------------------------|
|-------------------------------------------------------x-11-\-----|


Riff B
||---------------------------------------9-------9-------8------------|
||-o-----6---------------9-------9-----------.-------------------9----|
||-o-------------------------.-------7-------7------------------------|
||---4-------4-4-4---7-------7----------------------------------------|

|--------------------------------------------------------------------||
|-----6---------------9-------9------------------------------------o-||
|-------------------------.----------------------------------------o-||
|-4-------4-4-4---7-------7-------0---0---x---0-------2-------3------||


Riff C
||--------------------------------------------------------------------|
||-o------------------------------------------------------------------|
||-o---------------------------------7---7---R---7-------6------------|
||---4---4---R---4---7---7---R---7-------------------------------7----|

|--------------------------------------------------------------------||
|------------------------------------------------------------------o-||
|------------------------------------------------------------------o-||
|-4---4---R---4---7---7---R---7---0---0---R---0-------2-------3------||


Riff A
||----------------------------------------------------------------------||
||-o------------------------------------------------------------------o-||
||-o------------------------------------------------------------------o-|| 4X
||---0---0---0---0---7---7---7---7---4---4---4---4---4---4-4-4---4-4----||


Chorus 1
|------------------------------------------------------------------|
|------------------------------------------------------------------|
|-2---------------------------------------------------2-------3----|
|------------------------------------------------------------------|

|------------------------------------------------------------------|
|------------------------------------------------------------------|
|-4---------------------------------------------------4-------5----|
|------------------------------------------------------------------|

|------------------------------------------------------------------|
|------------------------------------------------------------------|
|-6-------6---6---6-6-6---6---6---6---6---6---6---6---6---6---6----|
|------------------------------------------------------------------|

|------------------------------------------------------------------|
|------------------------------------------------------------------|
|-9---9---9---9---9---9---9---9---9---9---9---9---9---9---9---9----|
|------------------------------------------------------------------|

|------------------------------------------------------------------|
|------------------------------------------------------------------|
|------------------------------------------------------------------|
|-4---4---4---4---4---4---4---4---4---4---4---4---4---2---4---4----|

|-----------------------------6-------6---4---4--------------------|
|-------------------------------------------------6---6---4---4----|
|-4---4---4---4---4---4---4----------------------------------------|
|------------------------------------------------------------------|

|------------------------------------------------------------------|
|------------------------------------------------------------------|
|-6---6---6---6---6---6---6---6---6---6---6---6---6---6---6---6----|
|------------------------------------------------------------------|

|------------------------------------------------------------------|
|------------------------------------------------------------------|
|-9---9---9---9---9---9---9---9---9---9---9---9---9---9---9---9----|
|------------------------------------------------------------------|


Riff C variation
|------------------------------------------------------------------|
|------------------------------------------------------------------|
|---------------------------------7---7---x---7-------6------------|
|-4---4---x---4---7---7---x---7-------------------------------7----|

|------------------------------------------------------------------|
|------------------------------------------------------------------|
|------------------------------------------------------------------|
|-4---4---x---4---7---7---x---7---0---0---x---0-------2-------3----|

|------------------------------------------------------------------|
|------------------------------------------------------------------|
|---------------------------------7---7---x---7-------6------------|
|-4---4---x---4---7---7---7---7-------------------------------7----|

|------------------------------------------------------------------|
|------------------------------------------------------------------|
|------------------------------------------------------------------|
|-4---4---x---4---7---7---x---7---0-----------------------11-\-----|


Riff C
||--------------------------------------------------------------------|
||-o------------------------------------------------------------------|
||-o---------------------------------7---7---R---7-------6------------|
||---4---4---R---4---7---7---R---7-------------------------------7----|

|--------------------------------------------------------------------||
|------------------------------------------------------------------o-||
|------------------------------------------------------------------o-||
|-4---4---R---4---7---7---R---7---0---0---R---0-------2-------3------||


Riff A
||----------------------------------------------------------------------||
||-o------------------------------------------------------------------o-||
||-o------------------------------------------------------------------o-|| 4X
||---0---0---0---0---7---7---7---7---4---4---4---4---4---4-4-4---4-4----||


Bridge
|------------------------------------------------------------------|
|------------------------------------------------------------------|
|------------------------------------------------------------------|
|-0---0---0---0---7---7---7---7---4---4---4---4---16--16--16--16---|


Chorus 2
|------------------------------------------------------------------|
|------------------------------------------------------------------|
|------------------------------------------------------------------|
|-7---7---7---7---7---7---7---7---7---7---7---7---7---6---7---8----|

|-----------------------------6-------6---4---4--------------------|
|-------------------------------------------------6---6---4--------|
|-4---4---4---4---4---4---4-----------------------------------4----|
|------------------------------------------------------------------|

|------------------------------------------------------------------|
|------------------------------------------------------------------|
|-6---6---6---6---6---6---6---6---6---6---6---6---6---6---6---6-6--|
|------------------------------------------------------------------|

|------------------------------------------------------------------|
|------------------------------------------------------------------|
|-9---9---9---9---9---9---9---9---9---9---9---9---9---9---9---9-\--|
|------------------------------------------------------------------|

|------------------------------------------------------------------|
|------------------------------------------------------------------|
|------------------------------------------------------------------|
|-4---4---4---4---4---4---4---4---4---4---4---4---4---2---4---4----|

|-----------------------------6-------6---4---4--------------------|
|-------------------------------------------------6---6---4--------|
|-4---4---4---4---4---4---4-----------------------------------4----|
|------------------------------------------------------------------|

|------------------------------------------------------------------|
|------------------------------------------------------------------|
|-6---6---6---6---6---6---6---6---6---6---6---6---6---6---6---6----|
|------------------------------------------------------------------|

|------------------------------------------------------------------|
|------------------------------------------------------------------|
|-9---9---9---9---9---9---9---9---9---9---9---9---9---9---9---9----|
|------------------------------------------------------------------|


Interlude (start softer and build up the volume)
|------------------------------------------------------------------|
|-6---6---6---6---6---6---6---6---6---6---6---6---6---8---6--------|
|-------------------------------------------------------------9----|
|------------------------------------------------------------------|

|------------------------------------------------------------------|
|------------------------------------------------------------------|
|-4---4---4---4---4---4---4---4---4---4---4---4---4---3---4---5----|
|------------------------------------------------------------------|

|------------------------------------------------------------------|
|------------------------------------------------------------------|
|-6---6---6---6---6---6---6---6---6---6---6---6---6---6---6---6----|
|------------------------------------------------------------------|

|------------------------------------------------------------------|
|------------------------------------------------------------------|
|-9---9---9---9---9---9---9---9---9---9---9---9---9---9---9---9----|
|------------------------------------------------------------------|

|------------------------------------------------------------------|
|------------------------------------------------------------------|
|-------------------------------------------------------------2----|
|-4---4---4---4---4---4---4---4---4---4---4---4---4---2---4--------|

|------------------------------------------------------------------|
|------------------------------------------------------------------|
|-4---4---4---4---4---4---4---4---4---4---4---4---4---4---4---4----|
|------------------------------------------------------------------|

|------------------------------------------------------------------|
|------------------------------------------------------------------|
|-6---6---6---6---6---6---6---6---6---6---6---6---6---6---6---6----|
|------------------------------------------------------------------|

|------------------------------------------------------------------|
|------------------------------------------------------------------|
|-9---9---9---9---9---9---9---9---9---9---9---9---9---R------------|
|------------------------------------------------------------------|


Chorus 3
|------------------------------------------------------------------|
|------------------------------------------------------------------|
|-2---2---2---2---2---2---2---2---2---2---2---2---2---1---2---3----|
|------------------------------------------------------------------|

|-----------------------------6-------6---4---4--------------------|
|-------------------------------------------------6---6---4---4----|
|-4---4---4---4---4---4---4----------------------------------------|
|------------------------------------------------------------------|

|------------------------------------------------------------------|
|------------------------------------------------------------------|
|-6---6---6---6---6---6---6---6---6---6---6---6---6---6---6---6----|
|------------------------------------------------------------------|

|------------------------------------------------------------------|
|------------------------------------------------------------------|
|-9---9---9---9---9---9---9---9---9---9---9---9---9---9---9---9-\--|
|------------------------------------------------------------------|

|------------------------------------------------------------------|
|------------------------------------------------------------------|
|-------------------------------------------------------------2----|
|-4---4---4---4---4---4---4---4---4---4---4---4---4---2---4--------|

|-----------------------------6-------6---4---4--------------------|
|-------------------------------------------------6---6---4--------|
|-4---4---4---4---4---4---4-----------------------------------4----|
|------------------------------------------------------------------|

|------------------------------------------------------------------|
|------------------------------------------------------------------|
|-6---6---6---6---6---6---6---6---6---6---6---6---6---6---6---6-6--|
|------------------------------------------------------------------|

|------------------------------------------------------------------|
|------------------------------------------------------------------|
|-9---9---9---9---9---9---9---9---9---9---9---9---9---9---9--------|
|-------------------------------------------------------------0----|


Riff B
||---------------------------------------9-------9-------8------------|
||-o-----6---------------9-------9-----------.-------------------9----|
||-o-------------------------.-------7-------7------------------------|
||---4-------4-4-4---7-------7----------------------------------------|

|--------------------------------------------------------------------||
|-----6---------------9-------9------------------------------------o-||
|-------------------------.----------------------------------------o-||
|-4-------4-4-4---7-------7-------0---0---x---0-------2-------3------||


Outro
|------------------------------------------------------------------|
|------------------------------------------------------------------|
|---------------------------------7---7---R---7-------6------------|
|-4---4---R---4---7---7---R---7-------------------------------7----|

|------------------------------------------------------------------|
|------------------------------------------------------------------|
|------------------------------------------------------------------|
|-4---4---R---4---7---7---R---7---0---0---R---0-------2-------3----|

|------------------------------------------------------------------|
|------------------------------------------------------------------|
|---------------------------------7---7---R---7-------6------------|
|-4---4---R---4---7---7---R---7-------------------------------7----|

|------------------------------------------------------------------|
|------------------------------------------------------------------|
|------------------------------------------------------------------|
|-4---4---R---4---7---7---R---7---0--------------------------------|
Suggest correction
Creating personal tab
Creating personal tab
You can edit any tab online and save it as your Personal.

You can edit, replace or remove any tab part or add personal notes – all changes will be seen only by you.

Personal tabs can be accessed anytime from any device, even offline.
Learn more »
Give kudos to tab author, rate the tab!
1 2 3 4 5
comments
print report bad tab
guest
You may want to rate the tab now too:
select rating
Wanna post a correction for this tab? Suggest correction