Oops, an error
Loading. Please wait.

All These Things I Have Done Bass Tab

9,133 views 6 this week
no commentswrite comment
1 2 3 4 5
accurate
x 6
add to favorites
launch autoscroll
font size
0
reset
guitar tuner
Tab Pro tools
  • play this tab
  • loop segment
  • change instrument
  • show fretboard
  • metronome
×
Best way to learn
"All These Things I Have Done"
Autoscroll
slow
fast
+/-
esc
set tempo
stop
Contributor
------------------------------------------------------------------------------
------------------------All_These_Things_I_Have_Done--------------------------
------------------------------------------------------------------------------

I positive that this is 99.9% correct. Please Rate or add a comment or 
correction. Thanks.


Tuning: Standard

Key: / = slide up
     ~ = ring out/hold note


[Intro]

opens with keyboard

   rest    |========4x=======|
g|---------|-----------------|-------------------------------------------|
d|---------|/4-4-4-4-4-4-4-4-|6666---------------------------------------|
a|---------|-----------------|----6666-4-4-4-4-4-4-4-4--4-4-4-4-4-4-4-4--|
E|---------|-----------------|-------------------------------------------|

g|-------------------------------|
d|4-4-4-4-4-4-4--4-4-4-4-4-4-4-4-|
a|-------------------------------|
E|-------------------------------|

[Verse 1]

 |==========4x=========|==========2x=========|==========6x=========|
g|---------------------|---------------------|---------------------| 
d|4--4--4--4--4--------|---------------6-4-6-|4--4--4--4--4--------|
a|---------------4-6-4-|---------------------|---------------4-6-4-|
E|---------------------|7--7--7--7--7--------|---------------------|

 |==========2x=========|
g|---------------------|------------------------|
d|---------------------|4--4--4--4--4--4--4--4--|
a|---------------6-4-6-|------------------------|
E|7--7--7--7--7--------|------------------------|

[Chorus 1]

g|-----------------------------------------------------------------|
d|4-4-4-4-4-4-4-4-4-4-4-4-4-4-4-4-4-4-4-4-4-4-4-4-4-4-4-4-6666-----|
a|------------------------------------------------------------6666-|
E|-----------------------------------------------------------------|

g|------------------------------------------------------------|
d|--------------------------------4-4-4-4-4-4-4-4-4-4-4-4-4-4-|
a|------------------------------------------------------------|
E|7-7-7-7-7-7-7-7-7-7-7-7-7-7-7-7-----------------------------|

[Verse 2]

 |==========4x=========|==========2x=========|
g|---------------------|---------------------|---------------------| 
d|4--4--4--4--4--------|---------------6-4-6-|4--4--4--4--4--------|
a|---------------4-6-4-|---------------------|---------------4-6-4-|
E|---------------------|7--7--7--7--7--------|---------------------|

g|-------------------------------|
d|4-4-4-4-4-4-4--4-4-4-4-4-4-4-4-|
a|-------------------------------|
E|-------------------------------|

[Chorus 2]

g|------------------------------------------------------------------|
d|4-4-4-4-4-4-4-4-4-4-4-4-4-4-4-4-4-4-4-4-4-4-4-4-4-4-4-4--4-4-4-4--|
a|------------------------------------------------------------------|
E|------------------------------------------------------------------|

g|------------------------------------------------------------------|
d|---------------------------------4-4-4-4-4-4-4-4-4-4-4-4-4-4-4-4--|
a|------------------------------------------------------------------|
E|7-7-7-7-7-7-7-7-7-7-7-7-7-7-7-7-----------------------------------|

g|---------------------------------------------------------------------|
d|------------------------------------------------------------------4--|
a|6-6-6-6-6-6-6-6-6-6-6-6-6-6-6-6--------------------------------------|
E|---------------------------------7-7-7-7-7-7-7-7-7-7-7-7-7-7-7-7-----|

[Bridge]
  
   rest
g|--------|--------------------------------------------------|
d|--------|4----4--4----4----4--4-----------------4----4--4--|
a|--------|------------------------4-6-----------------------|
E|--------|----------------------------7----7--7-------------|

g|----------------------------------------------------------------|
d|4-4-4-4-4-4-4-4-4-4-4-4-4-4-4-4---------------------------------|
a|--------------------------------6-6-6-6-6-6-6-6-6-6-6-6-6-6-6-6-|
E|----------------------------------------------------------------|

g|-------------------------------------------------------------------------|
d|----------------------------------------------------------------6666-----|
a|--------------------------------4-4-4-4-4-4-4-4-4-4-4-4-4-4-4-4-----6666-|
E|7-7-7-7-7-7-7-7-7-7-7-7-7-7-7-7------------------------------------------|

[Ending]

g|------------------------------------------------------------------|
d|4-4-4-4-4-4-4-4-4-4-4-4-4-4-4-4-4-4-4-4-4-4-4-4-4-4-4-4--4-4-4-4--|
a|------------------------------------------------------------------|
E|------------------------------------------------------------------|

g|-------------------------------------------------------------------------|
d|--------------------------------4-4-4-4-4-4-4-4-4-4-4-4-4-4-4-4-6666-----|
a|--------------------------------------------------------------------6666-|
E|7-7-7-7-7-7-7-7-7-7-7-7-7-7-7-7------------------------------------------|

g|------------------------------------------------------------------|
d|4-4-4-4-4-4-4-4-4-4-4-4-4-4-4-4-4-4-4-4-4-4-4-4-4-4-4-4--4-4-4-4--|
a|------------------------------------------------------------------|
E|------------------------------------------------------------------|

g|----------------------------------------------------------------|
d|--------------------------------4-4-4-4-4-4-4-4-4-4-4-4-4-4-4-4-|
a|----------------------------------------------------------------|
E|7-7-7-7-7-7-7-7-7-7-7-7-7-7-7-7---------------------------------|

g|----------------------------------------------------------------|
d|----------------------------------------------------------------|
a|6-6-6-6-6-6-6-6-6-6-6-6-6-6-6-6---------------------------------|
E|--------------------------------7-7-7-7-7-7-7-7-7-7-7-7-7-7-7-7-|

                                             break
g|------------------------------------------|---------|
d|------------------------------------------|---------|
a|0-0-0-0-0-0-0-0-0-0-0-0-0-0-0-0-0-0---4-6-|---------|
E|------------------------------------2-----|---------|

g|-----------------------------------------------------------------|
d|4-4-4-4-4-4-4-4-4-4-4-4-4-4-4-4-4-4-4-4-4-4-4-4-4-4-4-4-6666-----|
a|------------------------------------------------------------6666-|
E|-----------------------------------------------------------------|

g|------------------------------------------------------------|
d|------------------------------------------------------------|
a|6-6-6-6-6-6-6-6-6-6-6-6-6-6---------------------------------|
E|----------------------------7-7-7-7-7-7-7-7-7-7-7-7-7-7-7-7-|

g|--------------------------------------------------|
d|0-0-0-0-0-0-0-0-0-0-4~----------4~----------4~----|
a|--------------------------------------------------|
E|--------------------------2~----------2~----------|
comments
print report bad tab
I want to post or [tab]
guest
You may want to rate the tab now too:
select rating
Please do not post tabs as comments. Select "correction" instead!