Oops, an error
Loading. Please wait.

All These Things That Ive Done tab

version 2
version 2

Interactive

171,631 views 162 this week
11 commentsread comments
1 2 3 4 5
x 89
add to favorites
×
Save as Personal and add changes to this tab that will be seen only by you. Learn more ›
×
You can save this tab as Personal to edit and correct it or add notes. All changes will be seen only by you. Learn more »
launch autoscroll
font size
0
reset
how to read this tab
guitar tuner
edit
Autoscroll
slow
fast
+/-
esc
set tempo
stop
Author
Unregistered
----------------------------------------------------------------------------
              all these things that i've done - the killers
----------------------------------------------------------------------------
Album: Hot Fuss
Tabbed by:colin carlson
Email:yellowsnow312@yahoo.com

A good song but i think people need to listen harder because everything that
on the site was rong i dont know if this is right but at least it sounds good
tell me what you think

[Main riff]

E|----------------------------------------------------------------|
B|----------------------------------------------------------------|
G|----------------------------------------------------------------|
D|--11-11--8--11-----11-11--8--11-----8---8---8---8---8---8-------|
A|---------------9-9--------------9-9---9---9---9---9---9---9-----|
E|----------------------------------------------------------------|


(Varition of the main riff at the end of the song)

E|-9-9-6-9-----9-9-6-9-----6---6---6---6---6---6------------------|
B|---------7-7---------7-7---7---7---7---7---7--------------------|
G|----------------------------------------------------------------|
D|----------------------------------------------------------------|
A|----------------------------------------------------------------|
E|----------------------------------------------------------------|


[Verse]

E|-222222222-222222222---|
B|-444444444-222222222---|
G|-444444444-333333333---|
D|-444444444-444444444---|
A|-222222222-444444444---|
E|-----------222222222---|


[Chorus 1]
(in the first part of the song)

E|222222222-222222222-222222222-|
B|222222222-444444444-222222222-|
G|333333333-444444444-333333333-|
D|444444444-444444444-444444444-|
A|444444444-222222222-444444444-|
E|222222222-----------222222222-|


[Chorus 2]
(just before the bridge and in the second part of the song)

E|222222222-222222222-222222222-|-666666666-7777777777-------|
B|222222222-444444444-222222222-|-777777777-7777777777-------|
G|333333333-444444444-333333333-|-888888888-8888888888-------|
D|444444444-444444444-444444444-|-888888888-9999999999-------|
A|444444444-222222222-444444444-|-666666666-9999999999-------|
E|222222222-----------222222222-|-----------7777777777-------|


[Bridge]

E|--------------------------------|-666666666-7777777777------|
B|--------------------------------|-777777777-7777777777------|
G|-----------444444444------------|-888888888-8888888888------|
D|4444444444-444444444-4444444444-|-888888888-9999999999------|
A|4444444444-222222222-4444444444-|-666666666-9999999999------|
E|2222222222-----------2222222222-|-----------7777777777------|
  PM-----------------------------------------------------------|PM 

            
            
Suggest correction
Creating personal tab
Creating personal tab
You can edit any tab online and save it as your Personal.

You can edit, replace or remove any tab part or add personal notes – all changes will be seen only by you.

Personal tabs can be accessed anytime from any device, even offline.
Learn more »
comments
print report bad tab
11 comments total. Showing first comments.
+2 reply
sam allen rules 206 Nov 08, 2005 07:44 AM

there isnt any barre chords the bridge is a g5 to a c5

0 reply
NirvanaFan101 31 Jul 25, 2006 10:05 AM

You could have made it easier to play... the chords part... but the main riff and stuff was good. 4 stars for you. Later.

0 reply
Alchemykid93 20 Oct 07, 2007 10:12 AM

thanks dude pretty much great, just mite wana space it out to show the pick patterns and stuff...but great tab 5/5

guest
Wanna post a correction for this tab? Suggest correction