Oops, an error
Loading. Please wait.

All These Things That Ive Done Bass Tab

version 4
version 4

Whole song

Interactive

39,396 views 72 this week
5 commentsread comments
1 2 3 4 5
accurate
x 21
add to favorites
launch autoscroll
font size
0
reset
guitar tuner
Tab Pro tools
  • play this tab
  • loop segment
  • change instrument
  • show fretboard
  • metronome
×
Best way to learn
"All These Things That Ive Done"
Autoscroll
slow
fast
+/-
esc
set tempo
stop
Contributor
Difficulty
intermediate
Intro: Piano and vocals

Pre Verse:
G--------------------------------------------------------------------------|
D------------------------------------1616161613131313\---------------------|
A-/9999999-/9-999999-/9-999999-/9-999-----------------2222222-2-2222222----|
E--------------------------------------------------------------------------|

G---------------------|
D---------------------|
A-/9999999-/9-9999999-|
E---------------------| 

Verse:                             X2
G||---------------------------------||-----------------------------------|
D||.-------------------------------.||-----------------------------------|
A||.-9.9.9.9.9.-----9.9.9.9.9.-----.||-------------11911-----------11911-|
E||------------9119-----------9119--||---7.7.7.7.7.------7.7.7.7.7.------|
                                   X3
G||---------------------------------||-----------------------------------|
D||.-------------------------------.||-----------------------------------|
A||.-9.9.9.9.9.-----9.9.9.9.9.-----.||-------------11911-----------11911-|
E||------------9119-----------9119--||---7.7.7.7.7.------7.7.7.7.7.------|

G-------------------------------|
D-------------------------------|
A-9.9.9.9.9.-----9.9.9.9.9.-----|
E-----------9119-----------9119-| 

Chorus:
G------------------------------------------------------------|
D------------------------------------------1616161613131313\-|
A-/9999-/999-/9-999-/9999-/9999-/999-/9-999------------------|
E------------------------------------------------------------| 

G-------------------------------------|
D-------------------------------------|
A-2222222-2-2222222-9999999-9-9999999-|
E-------------------------------------|

Verse 2:                          X2
G||---------------------------------||----------------------------------|
D||.-------------------------------.||----------------------------------|
A||.-9.9.9.9.9.-----9.9.9.9.9.-----.||------------11911-----------11911-|
E||------------9119-----------9119--||--7.7.7.7.7.------7.7.7.7.7.------|

G-------------------------------|
D-------------------------------|
A-9.9.9.9.9.-----9.9.9.9.9.-----|
E-----------9119-----------9119-|

Chorus 2:                   X2
G||---------------------------||-------------------------------------------|
D||.-------------------------.||-------------------------------------------|
A||.-/9999-/999-/9-999-/9999-.||--2222222-2-2222222-/9999-/999-/9-999-/9999|
E||---------------------------||-------------------------------------------|

Pre Interlude:
G-----------------------------------------BREAK
D-----------------------------------------BREAK
A--6666666-6-6666666-2222222-2-2222222----BREAK
E--------------------------------------2.-BREAK 

Interlude: Come in with the drums
G--------------------------------------------------------------------------|
D------/16\-------/16\--------------------------------------/16161616161616|
A-/9\--------/9\-------2.2.2.2.2.2.2.2.2.2.2.2.2.2.2.2.-/9\----------------|
E--------------------------------------------------------------------------|

G------------------------------------------------------------------------|
D------------------------------------------------------16161616161616-16-|
A-6666666-6-6666666-2222222-2-2222222-9999999-9-9999999------------------|
E------------------------------------------------------------------------|

G-------------------------|
D-161616-1616161613131313-|
A-------------------------|
E-------------------------|

Chorus 3:
G---------------------------------------------------------------------|
D---------------------------------------------------------------------|
A-9999999-9-9999999-9999999-9-9999999-2222222-2-2222222-9999999-9-999-|
E---------------------------------------------------------------------|

G-----------------------------------------------------------------------|
D-1616161613131313------------------------------------------------------|
A-----------------9999999-9-9999999-9999999-9-9999999-2222222-2-2222222-|
E-----------------------------------------------------------------------|

G--------------------|
D--------------------|
A-/9999999-9-9999999-|
E--------------------|

Breakdown:
G---------------------------------------------------------|
D---------------------------------------------------------|
A-6666666-6-6666666-4444444-4-4444444-2222222-2-2222222---|
E------------------------------------------------------4~-| 

Outro:
G--------------------------------------------------------------------|
D---------------------------------1616161613131313-------------------|
A-9999999-9-9999999-9999999-9-999------------------6666666-6-6666666-|
E--------------------------------------------------------------------|

G--------------------------------------------------------------|
D--------------------------------------------------------------|
A-6666666-6-6666666-2222222-2-2222222-4444444-4-4444444-9~~~~~-|
E--------------------------------------------------------------|


Tabbed by: Ryan Bridges
comments
print report bad tab
5 comments total. Showing first comments.
0 reply
madderdaddy2 wrote on November 3 2007, 07:28 pm

nice tab man

+1 reply
Xx__benji__xX wrote on August 28 2008, 05:50 am

Breakdown around the 4 minute mark is played like this:

G---------------------------------------------------------|
D---------------------------------------------------------|
A-6666666-6-6666666-------------------2222222-2-2222222-4~|
E------------------444444444-4-4444444--------------------|

And Instead of playing the 16th fret on the D string, its much easier to play the 11 on the G moving down to the 8th on the G giving you exactly the same notes but MUCH easier to play. Not sure if its how he plays it or not though.
I think the verse is missing a fill which he plays alot lower down the neck. Apart from that, well done :)

0 reply
Gapiro wrote on August 14 2010, 03:14 pm

Benji is indeed correct, was about to post myself :)

I want to post or [tab]
guest
You may want to rate the tab now too:
select rating
Please do not post tabs as comments. Select "correction" instead!