Oops, an error
Loading. Please wait.

Andy Youre A Star Tab

version 3
version 3

Intro

Whole song

Interactive

4,707 views 21 this week
no commentswrite comment
1 2 3 4 5
excellent!
x 4
add to favorites
launch autoscroll
font size
0
reset
how to read this tab
guitar tuner
Tab Pro tools
  • play this tab
  • loop segment
  • change instrument
  • show fretboard
  • metronome
Autoscroll
slow
fast
+/-
esc
set tempo
stop
Contributor
Difficulty
Tuning
intermediate
D# G# C# F# A# D#
The Killers - "Andy, You're a Star"
tabbed by Nick Van Den Broeke (nuke126@gmail.com) 
http://www.angelfire.com/ca3/allu2/thekillerstabs.html
flat tuning (EbAbDbGbBbeb)

chords used:

Bb: 6-8-8-7-6-6
C:  x-3-2-0-1-x
Dm: x-x-0-2-3-1
F:  1-3-3-2-1-1
F*: x-0-7-5-6-5
Gm: 3-x-0-3-3-0

Intro:

eb|-----------------------------------------------------|
Bb|-8-8-6---8--8-6----8-8-6-0--8-8-5---8--8-6---8-8-6-0-|
Gb|-7-7-7---7--7-7----7-7-7-0--5-5-5---7--7-7---7-7-7-0-|
Db|-0-0-0-0-0--0-0--0-0-0-0----7-7-7-0-0--0-0-0-0-0-0---|
Ab|-------0---------0----------------0--------0---------|
Eb|-----------------------------------------------------|

Rhy. Fig. 1:

eb|-----------------------------------------------------|
Bb|-8-8-6---8--8-6----8-8-6-0--8-8-5---8--8-6---8-8-6-0-|
Gb|-7-7-7---7--7-7----7-7-7-0--5-5-5---7--7-7---7-7-7-0-|
Db|-0-0-0-0-0--0-0--0-0-0-0----7-7-7-0-0--0-0-0-0-0-0---|
Ab|-------0---------0----------------0--------0---------|
Eb|-----------------------------------------------------|

Verse 1: Rhy Fig. 1 (2 times)

On the field, I remember you were incredible,
Hey, shut up. Hey, shut up, yeah.
On the field, I remember you were incredible.
Hey, shut up. Hey, shut up, yeah.

Pre-Chorus 1:
       F              Gm            Dm                      F             Gm            Dm
On the mats, with the boys, you think you're alone with the pain that you drain from love.
     F           Bb       Gm              C
In a car, with a girl, promise me she's not your world 'cause Andy, you're a star.

Interlude:

Rhy. Fig. 1

Verse 2: Rhy Fig. 1 (2 times)

Leave your number on the locker and I'll give you a call.
Hey, shut up. Hey, shut up, yeah.
Leave your legacy in gold on the plaques that line the hall.
Hey, shut up. Hey, shut up, yeah.

Pre-Chorus 2:
       F              Gm         Dm                   F              Gm           Dm
On the street, such a sweet face jumping town. In the staff room the verdict is in.
     F           Bb       Gm              C
In a car, with a girl, promise me she's not your world 'cause Andy, you're a 

Chorus 1:

F*
star.
            Bb                            F*
In nobody's eyes but mine. Andy, you're a star
            Bb                            Dm
in nobody's eyes but mine. Andy, you're a star
            Bb       C
in nobody's eyes. In nobody's eyes but mine.

Outro:

eb|-----------------------------------------------------|
Bb|-8-8-6---8--8-6----8-8-6-0--8-8-5---8--8-6---8-8-6-0-|
Gb|-7-7-7---7--7-7----7-7-7-0--5-5-5---7--7-7---7-7-7-0-|
Db|-0-0-0-0-0--0-0--0-0-0-0----7-7-7-0-0--0-0-0-0-0-0---|
Ab|-------0---------0----------------0--------0---------|
Eb|-----------------------------------------------------|

eb|-----------------------------------------------------|
Bb|-8-8-6---8--8-6----8-8-6-0--8-8-5---8--8-6---8-8-6-0-|
Gb|-7-7-7---7--7-7----7-7-7-0--5-5-5---7--7-7---7-7-7-0-|
Db|-0-0-0-0-0--0-0--0-0-0-0----7-7-7-0-0--0-0-0-0-0-0---|
Ab|-------0---------0----------------0--------0---------|
Eb|-----------------------------------------------------|

eb|-----------------------------------|
Bb|-8-8-6--6-8--8-6----8-8-6-0--8-8-5-|
Gb|-7-7-7--7-7--7-7----7-7-7-0--5-5-5-|
Db|-0-0-0--0-0--0-0-0--0-0-0----7-7-7-|
Ab|-----------------0-----------------|
Eb|-----------------------------------|
comments
print report bad tab
I want to post or [tab]
guest
You may want to rate the tab now too:
select rating
Please do not post tabs as comments. Select "correction" instead!