Oops, an error
Loading. Please wait.

Battle Born Tab

version 1
version 1

Intro

Whole song

4,048 views 1 this week
1 commentread comment
1 2 3 4 5
please rate
add to favorites
launch autoscroll
font size
0
reset
how to read this tab
guitar tuner
Tab Pro tools
  • play this tab
  • loop segment
  • change instrument
  • show fretboard
  • metronome
×
Best way to learn
"Battle Born"
Autoscroll
slow
fast
+/-
esc
set tempo
stop
Contributor
Difficulty
novice
Battle Born
The Killers
Battle Born (2012)


E |-----3----------------------|----------------------------|
B |--5-----5--3--5-----5--3----|--5-----5--3--5--3-----3----|
G |----------------------------|--------------------4-------|
D |----------------------------|----------------------------|
A |----------------------------|----------------------------|
E |----------------------------|----------------------------| (x3)

-----3----------------------|----------------------------|
--5-----5--3--5-----5--3----|--5-----5--3-----3-----3----|
----------------------------|--------------4-----4-------|
----------------------------|----------------------------|
----------------------------|----------------------------|
----------------------------|----------------------------|

-----3----------------------|----------------------------|
--5-----5--3--5-----5--3----|--5-----5--3--5--3-----3----|
----------------------------|--------------------4-------|
----------------------------|----------------------------|
----------------------------|----------------------------|
----------------------------|----------------------------|


-----3----------------------|----------------------------|
--5-----5--3--5-----5--3----|--5-----5--3--5--3----------|
----------------------------|--------------------4-------|
----------------------------|----------------------------|
----------------------------|----------------------------|
----------------------------|----------------------------|

*Capo 1

 F - C - Bb - C - Dm - F - Gm - F
comments
We did not receive enough feedback on this tab! Please rate:
print report bad tab
1 2 3 4 5
1 comment total.
0 reply
dr92 wrote on September 22 2012, 03:33 am

I play it like this

E |----------------------------------|
B |----------------------------------|
G |--8-11-8-6-8--8-6-8--8-6-8-6---6--|
D |-----------------------------8----|
A |----------------------------------|
E |----------------------------------|

E |----------------------------------|
B |----------------------------------|
G |--8-11-8-6-8--8-6-8-6-8-6---------|
D |--------------------------8-6-----|
A |------------------------------9---|
E |----------------------------------|

I want to post or [tab]
guest
You may want to rate the tab now too:
select rating
Please do not post tabs as comments. Select "correction" instead!