Oops, an error
Loading. Please wait.

Believe Me Natalie Tab

version 1
version 1

Whole song

Interactive

13,360 views 12 this week
6 commentsread comments
1 2 3 4 5
worth learning
x 6
add to favorites
launch autoscroll
font size
0
reset
how to read this tab
guitar tuner
Tab Pro tools
  • play this tab
  • loop segment
  • change instrument
  • show fretboard
  • metronome
Autoscroll
slow
fast
+/-
esc
set tempo
stop
----------------------------------------------------------------------------
                             Believe Me Natalie - The Killers
----------------------------------------------------------------------------
Tabbed by: Mike McGovern

Ok, its a very simple song, consisting of two chords repeated eight times 
in a row each.

Tuning: Standard


Verse

e|-x---------------x------------------------------------------------------|
B|-10--------------10----------------------------------------------------.|
G|-10--x8----------9---x8-------------------------------------------------|
D|-10--------------10----------------------------------------------------.|
A|-x---------------x------------------------------------------------------|
E|-x---------------x------------------------------------------------------|


Chorus

A bit of heavy palm muting before returning to the above

e|-x---------------x---------------x--------------------------------------|
B|-x---------------10--------------10-------------------------------------|
G|-x-x8------------10--x8----------9---x8---------------------------------|
D|-x---------------10--------------10-------------------------------------|
A|-x---------------x---------------x--------------------------------------|
E|-x---------------x---------------x--------------------------------------|

As the chorus finishes, the guitar goes into this pattern before resuming 
its normal course

e|------------------------------------------------------------------------|
B|------------------------------------------------------------------------|
G|-10--9------10--9-10-9---10--9-10-9---10--9-10-9-10---------------------|
D|--------10--------------------------------------------------------------|
A|------------------------------------------------------------------------|
E|------------------------------------------------------------------------|

That's all I can be bothered with for now, anyway. I might post up some 
of the stuff that appears later in the song at a point in the future, but 
dont hedge your bets on it.

| /  slide up
| \  slide down
| h  hammer-on
| p  pull-off
| ~  vibrato
| +  harmonic
| x  Mute note
============================================================================
comments
print report bad tab
6 comments total. Showing first comments.
0 reply
Yate wrote on December 23 2005, 12:14 pm

blag

+1 reply
punksurf30 wrote on July 18 2006, 02:26 am

this tab is wrong i have seen the official sheet music and 2 cut a long story short it goes...

Gtr 1
17 -
18 17
17 17
- -
- -
- x8 - x8 THEN repeat 1x

Gtr 2
1 0
1 1
2 2
3 3
3 3
- x8 - x8 THEN repeat 3x

Gtr 3 (synth arr. for guitar)
13----12-10----12-------10-------10---
------------------13-------13-------10
--------------------------------------
--------------------------------------
--------------------------------------
--------------------------------------

thats all i can see without paying for the sheet music but u get the gist of it

0 reply
punksurf30 wrote on July 18 2006, 02:28 am

this tab is wrong i have seen the official sheet music and 2 cut a long story short it goes...

Gtr 1
17------
18----17
17----17
--------
--------
--x8----x8 THEN repeat 1x

Gtr 2
1-----0-
1-----1-
2-----2-
3-----3-
3-----3-
--x8----x8 THEN repeat 3x

Gtr 3 (synth arr. for guitar)
13----12-10----12-------10-------10---
------------------13-------13-------10
--------------------------------------
--------------------------------------
--------------------------------------
--------------------------------------

thats all i can see without paying for the sheet music but u get the gist of it

***I ****ed up the first 1 the spaces were screwed

I want to post or [tab]
guest
You may want to rate the tab now too:
select rating
Please do not post tabs as comments. Select "correction" instead!