Oops, an error
Loading. Please wait.

Bones Bass Tab

version 1
version 1

Whole song

Interactive

14,666 views 18 this week
14 commentsread comments
1 2 3 4 5
accurate
x 22
add to favorites
launch autoscroll
font size
0
reset
guitar tuner
Tab Pro tools
  • play this tab
  • loop segment
  • change instrument
  • show fretboard
  • metronome
×
Best way to learn
"Bones"
Autoscroll
slow
fast
+/-
esc
set tempo
stop
Contributor
First off I need to say that this tab is sort of hard. It took me awhile to figure out the notation.

 Intro/Chorus (after keyboard riff)
G|-------------------------------------|
D|-------------------------------------|
A|-0000000000000000-22222222-----------|
E|---------------------------2222-0000-|

G|-------------------------------------|
D|-------------------------------------|
A|-5555555555555555-7777777777777777---|
E|-------------------------------------|

 Verse
G|-------------------------------------|
D|-------------------------------------|
A|----------22222222----------44444444-|
E|-22222222----------44444444----------|

 Pre-Chorus 1
G|--------------------------------------------|
D|--------------------------------------------|
A|-5555555555555555-4-2-0---------------------|
E|------------------------4-22222222-00000000-|

 Bridge
G|-------------------|
D|-------------------|
A|-00000000-22222222-|
E|-------------------|

 End Bridge
G|----------------------------------|
D|----------------------------------|
A|-77777777777777777777777777777777-|
E|----------------------------------|

 Final Chorus
G|---------------------------------------|
D|---------------------------------------|
A|-0~-------2~--------5~-------7~--------|
E|---------------2--0--------------------|

 Pre-Chorus 2 Part 1(after "wait till tommorow you'll be fine")
G|-----------------------------------|
D|-----------------------------------|
A|-5555555555555555-7777777777777777-|
E|-----------------------------------|

 Pre-Chorus 2 Part 2
G|--------------------------------------------|
D|--------------------------------------------|
A|-5555555555555555-4-2-0---------------------|
E|------------------------4-22222222-00000000-|
 
 Outro
G|----|
D|----|
A|-0~-|
E|----|

 Order
Intro 1x
Verse 4x
Pre Chorus 1 1x
Chorus 1x
Verse 4x
Pre-Chorus 2 Part 1 1x
Verse 2x
Pre-Chorus 2 Part 2 1x
Chorus 2x
Bridge 4x
End Bridge 1x
Final Chorus 2x
Chorus 2x (slow down here toward the Outro)
Outro 1x

Here you go. Rate it good.
comments
print report bad tab
14 comments total. Showing first comments.
0 reply
JamesForks wrote on December 27 2006, 10:34 am

Pretty decent.

0 reply
disca-limer8 wrote on January 1 2007, 04:28 pm

Thanks JamesForks. It's pretty cool right?

0 reply
JamesForks wrote on January 6 2007, 11:49 pm

Yea, it works for me. Pretty much perfectly.

I want to post or [tab]
guest
You may want to rate the tab now too:
select rating
Please do not post tabs as comments. Select "correction" instead!