Oops, an error
Loading. Please wait.

Bones Tab

version 1
version 1

Whole song

Interactive

40,164 views 30 this week
9 commentsread comments
1 2 3 4 5
accurate
x 15
add to favorites
launch autoscroll
font size
0
reset
how to read this tab
guitar tuner
Tab Pro tools
  • play this tab
  • loop segment
  • change instrument
  • show fretboard
  • metronome
×
Best way to learn
"Bones"
Autoscroll
slow
fast
+/-
esc
set tempo
stop
Contributor
Artist: The Killers
Song: Bones
Album: Sam's Town
                  

INTRO

    Keyboard 
e|-17------------------------17------------------------------------17------|
B|----19-17---------------------19-17---------------------------------19-17|
G|----------18-------------------------------------------------------------|
D|-----------------------------------19------------------------------------|
A|-------------------------------------------------------------------------|
E|-------------------------------------------------------------------------|
   Guitar
e|-------------------------------------------------------------------------|
B|-------------------------------------------------------------------------|
G|-------------------------------------------------------------------------|
D|-----7-----7-7-----7---7--7-7---7----9------9-9---9---4--4---2-2---2-----|
A|-----7--x--7-7--x--7---7--7-7---7----9---x--9-9---9---4--4---2-2---2-----|
E|-----5--x--5-5--x--5---5--5-5---5----7---x--7-7---7---2--2---0-0---0-----|
   Keyboard
e|-------------------17----------17----------------------------------------|
B|----------17h19---19---------------19-17---------------------------------|
G|----18---------------------------------------16--------------------------|
D|-------------------------------------------------------------------------|
A|-------------------------------------------------------------------------|
E|-------------------------------------------------------------------------|

e|-------------------------------------------------------------------------|
B|-------------------------------------------------------------------------|
G|-------------------------------------------------------------------------|
D|---12------12--12-----12---12---12-12----9-----9-9------9---9---9-9------|
A|---12--x---12--12--x--12---12---12-12----9--x--9-9---x--9---9---9-9------|
E|---10--x---10--10--x--10---10---10-10----7--x--7-7---x--7---7---7-7------|
   
  VERSE
  
e|-------------------------------------------------------------------------|
B|-------------------------------------------------------------------------|
G|-------------------------------------------------------------------------|
D|--11-------11--------11-11--12-------12-------12--12---9-------9------9-9|
A|--11--x-x--11--x--x--11-11--12--x-x--12--x-x--12--12---9--x-x--9--x-x-9-9|
E|--9---x-x--9---x--x--9--9---10--x-x--10--x-x--10--10---7--x-x--7--x-x-7-7|

e|----------------------------|
B|----------------------------|
G|----------------------------| X4
D|--11-------11--------11-11--| 
A|--11--x-x--11--x--x--11-11--|
E|--9---x-x--9---x--x--9--9---|
   
   PRE CHORUS
 
e|-------------------------------------------------------------------------|
B|-------------------------------------------------------------------------|
G|--10---10---10---10---10----------------2---2---2------------------------|
D|--12---12---12---12---12---12--11-9--7--4---4---4---2-2-2-2-2-2----------|
A|--12---12---12---12---12---12--11-9--7--4---4---4---2-2-2-2-2-2----------|
E|--10---10---10---10---10---10--9--7--5--2---2---2---0-0-0-0-0-0----------|

  CHOURS

e|-------------------------------------------------------------------------|
B|-------------------------------------------------------------------------|
G|-------------------------------------------------------------------------|
D|-----7-----7-7-----7---7--7-7---7----9------9-9---9---4--4---2-2---2-----|
A|-----7--x--7-7--x--7---7--7-7---7----9---x--9-9---9---4--4---2-2---2-----|
E|-----5--x--5-5--x--5---5--5-5---5----7---x--7-7---7---2--2---0-0---0-----|

e|-------------------------------------------------------------------------|
B|-------------------------------------------------------------------------|
G|-------------------------------------------------------------------------|
D|---12------12--12-----12---12---12-12----9-----9-9------9---9---9-9------|
A|---12--x---12--12--x--12---12---12-12----9--x--9-9---x--9---9---9-9------|
E|---10--x---10--10--x--10---10---10-10----7--x--7-7---x--7---7---7-7------|

 VERSE
 (damp strings)
e|-------------------------------------------------------------------------|
B|-------------------------------------------------------------------------|
G|-------------------------------------------------------------------------|
D|--11-------11--------11-11--12-------12-------12--12---9-------9------9-9|
A|--11--x-x--11--x--x--11-11--12--x-x--12--x-x--12--12---9--x-x--9--x-x-9-9|
E|--9---x-x--9---x--x--9--9---10--x-x--10--x-x--10--10---7--x-x--7--x-x-7-7|

e|----------------------------|
B|----------------------------|
G|----------------------------| X2
D|--11-------11--------11-11--| 
A|--11--x-x--11--x--x--11-11--|        
E|--9---x-x--9---x--x--9--9---|

   THEN PLAY THIS...

e|-------------------------------------------------------------------------|
B|---wait till tommorow you'll be fine but its gone to the dogs in my mind-|
G|---10--------------------9---------7------------------------------10-----|
D|---12--------------------11--------9------------------------------12-----|
A|---12--------------------11--------9------------------------------12-----|
E|-- 10--------------------9---------7------------------------------10-----|

e|---------------------------------------------------------------------|
B|---------------------------------------------------------------------|
G|---------------------------------------------------------------------|
D|---11-11-11-11-11-11-11-11-12-12-12-12-12-12-12-12-9-9-9-9-9-9-9-9---|
A|---11-11-11-11-11-11-11-11-12-12-12-12-12-12-12-12-9-9-9-9-9-9-9-9---|
E|---9- 9--9--9--9--9--9--9--10-10-10-10-10-10-10-10-7-7-7-7-7-7-7-7---|

e|---------------------------|
B|---------------------------|
G|---------------------------| X 2
D|---11-11-11-11-11-11-11-11-|
A|---11-11-11-11-11-11-11-11-|
E|---9- 9--9--9--9--9--9--9--|

   PRE CHORUS
 
e|-------------------------------------------------------------------------|
B|-------------------------------------------------------------------------|
G|--10---10---10---10---10----------------2---2---2------------------------|
D|--12---12---12---12---12---12--11-9--7--4---4---4-2-2-2-2-2-2-2-2-2-2-2-2|
A|--12---12---12---12---12---12--11-9--7--4---4---4-2-2-2-2-2-2-2-2-2-2-2-2|
E|--10---10---10---10---10---10--9--7--5--2---2---2-0-0-0-0-0-0-0-0-0-0-0-0|


   CHORUS

e|-------------------------------------------------------------------------|
B|-------------------------------------------------------------------------|
G|-------------------------------------------------------------------------|
D|-----7-----7-7-----7---7--7-7---7----9------9-9---9---4--4---2-2---2-----|
A|-----7--x--7-7--x--7---7--7-7---7----9---x--9-9---9---4--4---2-2---2-----|
E|-----5--x--5-5--x--5---5--5-5---5----7---x--7-7---7---2--2---0-0---0-----|

e|---------------------------------------------------------------------|
B|---------------------------------------------------------------------|
G|---------------------------------------------------------------------| X2
D|---12------12--12-----12---12---12-12----9-----9-9------9---9---9-9--|
A|---12--x---12--12--x--12---12---12-12----9--x--9-9---x--9---9---9-9--|
E|---10--x---10--10--x--10---10---10-10----7--x--7-7---x--7---7---7-7--|

    Bridge

e|-------------------------------------------------------------------------|
B|-never had a lover-(never had a lover) never had soul (never had soul)---|
G|-10-----------------9-------------------10------------7------------------|
D|-12-----------------11------------------12------------9------------------|
A|-12-----------------11------------------12------------9------------------|
E|-10-----------------9-------------------10------------7------------------|


e|-------------------------------------------------------------------------|
B|-never had a good time (i never had a good time)-never got told (never..)|
G|-10----------------------9------------------------10-------------7-------|
D|-12----------------------11-----------------------12-------------9-------|
A|-12----------------------11-----------------------12-------------9-------|
E|-10----------------------9------------------------10-------------7-------|

e|-------------------------------------------------------------------------|
B|-------------------------------------------------------------------------|
G|-------------------------------------------------------------------------|
D|----9-9-9-9-9-9-9-9------------------------------------------------------|
A|----9-9-9-9-9-9-9-9-Keep on playing this till the chorus begins----------|
E|----7-7-7-7-7-7-7-7------------------------------------------------------|

e|-------------------------------------------------------------------------|
B|dont you wanna come with me, dont you wanna feel my bones,---------------|
G|---------------5------------------------------7--------------2-----------|
D|---------------7------------------------------9--------------4-----2-----|
A|---------------7------------------------------9--------------4-----2-----|
E|---------------5------------------------------7--------------2-----0-----|

e|------------------------------------| e|----14--12--------14--12----------
B|--and your bones, it's only natural-| B|------------10-----------10-------
G|-------10---------------------------| G|----------------------------------
D|-------12--------------------9------| D|-----Now just play this till the--
A|-------12--------------------9------| A|-----end of the chorus------------
E|-------10--------------------7------| E|----------------------------------

  AND THIS ALL THATS LEFT, THE LAST CHORUS

e|-------------------------------------------------------------------------|
B|-------------------------------------------------------------------------|
G|-------------------------------------------------------------------------|
D|-----7-----7-7-----7---7--7-7---7----9------9-9---9---4--4---2-2---2-----|
A|-----7--x--7-7--x--7---7--7-7---7----9---x--9-9---9---4--4---2-2---2-----|
E|-----5--x--5-5--x--5---5--5-5---5----7---x--7-7---7---2--2---0-0---0-----|

e|---------------------------------------------------------------------|
B|---------------------------------------------------------------------|
G|---------------------------------------------------------------------| X2
D|---12------12--12-----12---12---12-12----9-----9-9------9---9---9-9--|
A|---12--x---12--12--x--12---12---12-12----9--x--9-9---x--9---9---9-9--|
E|---10--x---10--10--x--10---10---10-10----7--x--7-7---x--7---7---7-7--|

 Well thats it. I hope it helps if you wanna contact me my addy is:
 whydontyoulikethefatgutairist@hotmail.com./,;.;l Cheers, Ben
comments
print report bad tab
9 comments total. Showing first comments.
0 reply
roughtrade wrote on October 28 2006, 03:27 pm

brilliant tab

0 reply
disca-limer8 wrote on December 10 2006, 08:55 pm

It's okay, but it's a little out of key. It still sounds good, but you might want to listen to the song a few times. But it's still a f****** awesome tab. 4 stars.

0 reply
harmoniclydian wrote on January 28 2007, 09:09 am

Ye there are a few chord progressions that are a bit off in it. I think the verse starts on an f sharp minor not a c sharp minor and a few others like that but well done all the same.

I want to post or [tab]
guest
You may want to rate the tab now too:
select rating
Please do not post tabs as comments. Select "correction" instead!