Oops, an error
Loading. Please wait.

Bones Bass Tab

version 2
version 2

Whole song

Interactive

5,744 views 15 this week
no commentswrite comment
1 2 3 4 5
excellent!
x 7
add to favorites
launch autoscroll
font size
0
reset
guitar tuner
Tab Pro tools
  • play this tab
  • loop segment
  • change instrument
  • show fretboard
  • metronome
Autoscroll
slow
fast
+/-
esc
set tempo
stop
Contributor
Difficulty
novice
BASS TAB
Song: Bones
Artist: The Killers
Album: Sam's Town
Tuning: Standard (GDAE)
Speed: 4 notes per second "NPS"
Symbols:
 = let previous note ring
 / slide up
 \ slide down

----------------

[PARTS (not in order)]
Intro/Chorus 1:
G|----------------------------------------------------------------|
D|---------------------------------0=-----0-0----012=-22222-2(x7)-|
A|-0=-000-0-0-00-012=-2222------------0000----000-----------------|
E|-------0------4---------2-2-00000-------------------------------|

Verse 1:
G|------------------------------------------------------------------|
D|------0(x8)---------------0(x8)----------0(x16)-------------------|
A|-4(x8)-----2(x8)4(x8)---------------4(x8)------4-2-0--------------|
E|---------------------2(x8)-----4(x8)-----------------4-2(x8)0(x8)-|

Verse 2:
G|-------------------------------------------------------------|
D|------0(x8)---------------0(x8)----------0(x16)2(x8)/14(x8)\-|
A|-4(x8)-----2(x8)--------------------4(x8)--------------------|
E|----------------0(x8)2(x8)-----4(x8)-------------------------|

Verse 3:
G|-------------------------------------------------------------------------|
D|------0(x8)---------------0(x8)----------0(x16)--------------------------|
A|-4(x8)-----2(x8)4(x8)---------------4(x8)------4-2-0---------------------|
E|---------------------2(x8)-----4(x8)-----------------4-2(x8)0(x8)/12(x8)-|

Chorus 2:
G|----------2-1----------------------------------------------|
D|---------------------------------0=-----0-0----012=-2(x13)-|
A|-0=-000-0------012=-2222------------0000----000------------|
E|-------0------4---------2-2-00000--------------------------|

Bridge 1:
G|----------------------------------------------------------------|
D|-4====04=3====03=2=======1=======----------------0=======2(x32)-|
A|---------------------------------0=======4=======---------------|
E|----------------------------------------------------------------|

Bridge 2:
G|------------------------------------------------------------------|
D|---------------------------------0===============2===============-|
A|-0===============2=======-----------------------------------------|
E|-------------------------2===0===---------------------------------|

Chorus 3:
G|-----------------------------------------------|
D|--------------------0(x16)2(x8)/14(x16 8NPS)---|
A|-0(x16)2(x8)-----------------------------------|
E|------------22220000---------------------------|

Chorus 4:
G|-----------------------------------------------------------------|
D|--------0-0-00-012=-222-4-4-2(x5)0=-----0-0----012=-22222-2(x7)--|
A|-0=-000-------4---------------------0000----000------------------|
E|-----------------------------------------------------------------|

Ending:
G|---|
D|---|
A|-0=|
E|---|
Let note ring out

----------------

[ORDER]
Intro/Chorus 1 (0:06)
Verse 1 (x1) "But I don't really like you..." (0:34)
Intro/Chorus 1 (x1) "Don't you wanna come with me..." (0:56)
Verse 2 (x1) "A cinematic vision ensued..." (1:10)
Verse 3 (x1) "I always hear them..." (1:30)
Intro/Chorus 1 (x1) "Don't you wanna come with me..." (1:55)
Chorus 2 (x1) "Don't you wanna swim with me..." (2:08)
Bridge 1 (x1) "I never had a lover..." (2:22)
Bridge 2 (x1) "Don't you wanna come with me..." (2:40)
Chorus 3 (x1) "Don't you wanna swim with me..." (2:55)
Chorus 4 (x2) "Don't you wanna come with me..." (3:08)
Ending (3:36)

Tabbed by Joseph White (JMWhite)
comments
print report bad tab
I want to post or [tab]
guest
You may want to rate the tab now too:
select rating
Please do not post tabs as comments. Select "correction" instead!