Oops, an error
Loading. Please wait.

Crippling Blow Tab

version 1
version 1

Intro

Interactive

1,871 views 4 this week
2 commentsread comments
1 2 3 4 5
please rate
add to favorites
launch autoscroll
font size
0
reset
how to read this tab
guitar tuner
Tab Pro tools
  • play this tab
  • loop segment
  • change instrument
  • show fretboard
  • metronome
×
Best way to learn
"Crippling Blow"
Autoscroll
slow
fast
+/-
esc
set tempo
stop
Contributor
Tabbers playing skills
intermediate +
Hi!

The chords are up here already(ver 2 is spot on!), but I think i've got the riff! Et voila:

Tabbed by: soupdragon
Email: why would I tell you?

Tuning: Standard (If you want to tune your guitar like Keuning does - Eb -, just play 
in this tab 1 fret higher!)

e|-------------------------------------------------------------------------|
B|-------------------------------------------------------------------------|
G|--4--4-4-4---------------------------------------------------------------|
D|--6--6-6-6---------------------------------------------------------------|
A|--6--6-6-6---------------------------------------------------------------|
E|--4--4-4-4--4/7~---------------------------------------------------------|

Over the third and fourth repeat of this riff,this little riff is played once:
e|---------------------------|
B|--16--14-------------------|
G|----------16--13-----------|
D|---------------------------|
A|---------------------------|
E|---------------------------|
comments
We did not receive enough feedback on this tab! Please rate:
print report bad tab
1 2 3 4 5
2 comments total.
0 reply
RCH15 wrote on December 17 2008, 03:17 pm

Good tab, but how is this intermediate?

0 reply
soupdragon wrote on December 18 2008, 01:30 pm

no no no, it says tabber's pl,aying skill, not skill needed to play the tab! intermidiate is my skill rating on my profile!

I want to post or [tab]
guest
You may want to rate the tab now too:
select rating
Please do not post tabs as comments. Select "correction" instead!