Oops, an error
Loading. Please wait.

Enterlude Tab

version 1
version 1

Whole song

Interactive

6,174 views 1 this week
no commentswrite comment
1 2 3 4 5
please rate
add to favorites
launch autoscroll
font size
0
reset
how to read this tab
guitar tuner
Tab Pro tools
  • play this tab
  • loop segment
  • change instrument
  • show fretboard
  • metronome
×
Best way to learn
"Enterlude"
Autoscroll
slow
fast
+/-
esc
set tempo
stop
Contributor
Artist – The Killers
Track – Enterlude
Contact -(im_still_alive6@hotmail.com)
Here’s just a little piano bit for the enterlude of Sam’s Town arranged for a guitar, it 
in near the end of the song. Please rate this tab. Rock on.

Part 1
E|-7-9-7------------7-|
B|--------9-7-9---7---|
G|---------------9----|
D|--------------------|
E|--------------------|
A|--------------------|

Part 2
E-7-9-7-------------7-----7--|
B--------9-7-9---9---7-9-----|
G---------------9-----------9|
D----------------------------|
A----------------------------|
E----------------------------|
After part 2, loop back into part 1. 
 
Or 
P1
G| 11-13-11-----------------|
D|------------13-11-13-11---|
A|------------------------14|

P2
G|----11-------11-----|
D|-13----11-13--------|
A|------------------14| 
comments
We did not receive enough feedback on this tab! Please rate:
print report bad tab
1 2 3 4 5
I want to post or [tab]
guest
You may want to rate the tab now too:
select rating
Please do not post tabs as comments. Select "correction" instead!