Oops, an error
Loading. Please wait.

Enterlude Tab

version 3
version 3

Whole song

Interactive

937 views 1 this week
no commentswrite comment
1 2 3 4 5
please rate
add to favorites
launch autoscroll
font size
0
reset
how to read this tab
guitar tuner
Tab Pro tools
  • play this tab
  • loop segment
  • change instrument
  • show fretboard
  • metronome
×
Best way to learn
"Enterlude"
Autoscroll
slow
fast
+/-
esc
set tempo
stop
Contributor
-------------------------------------------------------------------------------
                             ENTERLUDE - The Killers
-------------------------------------------------------------------------------
Tabbed by: Mikey Sibson
Email: mikey.rider@gmail.com

Tuning: Half-Step Down

We hope -    you enjoy              your                stay
e|-0-----------------3-------------------------------------------------------|
B|-1-----------------5-----------------------------------1-------------------|
G|-2-----------------5-----------------------------------2-------------------|
D|-------------------------------------------------------3-------------------|
A|-0-----------------3-------------------------------------------------------|
E|-------------------------------------------------------1-------------------|

It's good to  have you with us, even if it's just for the day
e|----0-------------------------------------------------------3----3---------|
B|----1-------------------3-----------1-----------------------1----3---------|
G|----2-------------------4-----------2-----------------------0----0---------|
D|------------------------5-----------3--------------------------------------|
A|----0-------------------------------------------------------3----2---------|
E|------------------------3-----------1--------------------------------------|

We  hope   you    enjoy your stay                            
e|----0--------------------------3-------------------------------------------|
B|----1--------------3-----------5--------------1----------------------------|
G|----2--------------4-----------5--------------2----------------------------|
D|-------------------5--------------------------3----------------------------|
A|----0--------------------------3-------------------------------------------|
E|-------------------3--------------------------1----------------------------|

Out side the sun is shining, it seems like heaven aint far away
e|---0----------------------------------------------------------3----3-------|
B|---1----------------3-----------------------1-----------------1----3-------|
G|---2----------------4-----------------------2-----------------0----0-------|
D|--------------------5-----------------------3------------------------------|
A|---0----------------------------------------------------------3----2-------|
E|--------------------3-----------------------1------------------------------|


It's good to have  you  with us, even if it's just for the day
e|----0----------------------------------------------------------------------|
B|----1-------------------3-----------1--------------------------------------|
G|----2-------------------4-----------2--------------------------------------|
D|------------------------5-----------3--------------------------------------|
A|----0----------------------------------------------------------------------|
E|------------------------3-----------1--------------------------------------|

e|----3--5--3-------------------------------------3--------------------------|
B|---------------5---------3--5--3-----------5-------------------------------|
G|-----------------------------------5---------------------------------------|
D|---------------------------------------------------------------------------|
A|----3-------------------------------------------2--------------------------|
E|---------------------------------------------------------------------------|

e|----3--5--3-------------------------------0----3---------------------------|
B|---------------5---------3--5--3--------------------3----------------------|
G|-----------------------------------5---------------------------------------|
D|---------------------------------------------------------------------------|
A|----0----------------------------------------------------------------------|
E|---------------------------------------------------------------------------|

e|------------------------------------0------------3-------------------------|
B|-----3--------------------------------------------------1------------------|
G|---------------------------------------------------------------------------|
D|---------------------------------------------------------------------------|
A|---------------------------------------------------------------------------|
E|-----3----------------------------------------------------------------1----|


| /  slide up
| \  slide down
| h  hammer-on
| p  pull-off
| ~  vibrato
| +  harmonic
| x  Mute note
===============================================================================
comments
We did not receive enough feedback on this tab! Please rate:
print report bad tab
1 2 3 4 5
I want to post or [tab]
guest
You may want to rate the tab now too:
select rating
Please do not post tabs as comments. Select "correction" instead!