Oops, an error
Loading. Please wait.

Exitlude Bass Tab

version 1
version 1

Whole song

Interactive

1,417 views 3 this week
no commentswrite comment
1 2 3 4 5
excellent!
x 2
add to favorites
launch autoscroll
font size
0
reset
guitar tuner
Tab Pro tools
  • play this tab
  • loop segment
  • change instrument
  • show fretboard
  • metronome
Autoscroll
slow
fast
+/-
esc
set tempo
stop
this is my first tab, but i had to perform it in a talent show so i'm 300% sure 
about it's accuracy.
It's the most simplified way to play it, everything is up near the head, but it also 
sense in some parts to just walk up and down the E string, plus it looks flashier that way.
this is the only bass tab for this song on the web, so you're welcome.

Verse/chorusy thing: "we hope you enjoyed your stay..."

G |--------------------------------------------------------------------------|
D |--------------------------------------------------------------------------|
A |----------2-2-2-2-----------------------------------2-2-1-1---------------|
E |--4-4-4-4---------0x8----4-4-4-4--2-2-2-2--0-0-0-0------------------------|

G |---------------------------------------------------------------------------|
D |---------------------------------------------------------------------------|
A |--------------------2-2-2-2----------------------------------------2-2-1-1-|
E |--4-4-4-4--2-2-2-2-----------0-0-0-0----4-4-4-4--2-2-2-2--0-0-0-0----------|

G |--------------------------------------------------------------------------|
D |------------------------------4x8-----------------------------------------|
A |--------------------------------------------------------------------------|
E |--4-4-4-4--2-2-2-2--0x8--2x8----------------------------------------------|

Piano Solo:

G |--------------------------------------------------------------------------|
D |----------------1---------------------------------------------------------|
A |--2-2-2-2-2-2-4----------------1-2-1---------------------1----------------|
E |-------------------4-4-4-4-4----------2x8--0-0-0-0-0-2-4------------------|

G |-----------------------------1---------------------------------------------|
D |--------------1-4-------------1--------------------2-1---------------------|
A |--2-2-2-2-2-4-------------------------1-2-4-2-1--------4-2-----1-2-2-------|(hold)
E |------------------4-4-4-4-4----4--2-4-----------4----------2-4-------------|

Exit ((Echoy) its good to have you with us):

G |--------------------------------------------------------------------------|
D |--------------------------------------------------------------------------|
A |----2----------------2----------------2-----------------------------------|
E |--2----------------2----------------2-------------------------------------|
comments
We did not receive enough feedback on this tab! Please rate:
print report bad tab
1 2 3 4 5
I want to post or [tab]
guest
You may want to rate the tab now too:
select rating
Please do not post tabs as comments. Select "correction" instead!