Oops, an error
Loading. Please wait.

Flesh And Bone Bass Tab

version 1
version 1

Whole song

Interactive

1,950 views 1 this week
1 commentread comment
1 2 3 4 5
please rate
add to favorites
launch autoscroll
font size
0
reset
guitar tuner
Tab Pro tools
  • play this tab
  • loop segment
  • change instrument
  • show fretboard
  • metronome
×
Best way to learn
"Flesh And Bone"
Autoscroll
slow
fast
+/-
esc
set tempo
stop
Contributor
Difficulty
Tuning
intermediate
D# G# C# F# A# D#
-------------------------------------------------------------------------------
                             FLESH AND BONE - The Killers
-------------------------------------------------------------------------------
Tabbed by: Mithriddle
E-mail: adammithriddle@gmail.com

Tuning: Half a step down

Accurate apart from the funny extra notes he plays in the last chorus.
The brackets with the x followed by a number indicates how many times to play this 
note. Example, Ab| --2(x16)--| Means play the second fret on the A sixteen times.

Intro 
"They say I'll adjust..."
Gb|------------|
Db|------------|
Ab|----0-4~----|
Eb|------------|

"Fantasy..."
Gb|---------------------------------|
Db|---------------------------------|
Ab|--2(x8)-------4(x8)--------------|
Eb|--------2(x8)-------0(x4)-6(x4)--|

Gb|---------------------------------|
Db|---------------------------------|
Ab|--------------4(x8)--------------|
Eb|--4(x8)-0(x8)-------0(x4)-2(x4)--|

Verse 1
Gb|---------------------------------|
Db|---------------------------------|
Ab|--2(x8)-------4(x8)--------------|
Eb|--------2(x8)-------0(x4)-6(x4)--|

Gb|---------------------------------|
Db|---------------------------------|
Ab|--------------4(x8)--------------|
Eb|--4(x8)-0(x8)-------0(x4)-2(x4)--|

Gb|---------------------------------|
Db|---------------------------------|
Ab|--------------4(x8)--------------|
Eb|--4(x8)-0(x8)-------0(x4)-2(x4)--|

Pre-chorus
Gb|---------------|
Db|---------------|
Ab|--2~----4~-----|
Eb|-----2~----0~--|

"What are you afraid of?"
Gb|----------|
Db|----------|
Ab|----------|
Eb|--2(x16)--|

Chorus
Gb|---------------------------------|
Db|---------------------------------|
Ab|--2(x8)-------4(x8)--------------|
Eb|--------2(x8)-------0(x4)-6(x4)--|

Gb|---------------------------------|
Db|---------------------------------|
Ab|--------------4(x8)--------------|
Eb|--4(x8)-0(x8)-------0(x4)-2(x4)--|

Gb|---------------------------------|
Db|---------------------------------|
Ab|--2(x8)-------4(x8)--------------|
Eb|--------2(x8)-------0(x4)-6(x4)--|

Gb|---------------------------------|
Db|---------------------------------|
Ab|--------------4(x8)--------------|
Eb|--4(x8)-0(x8)-------0(x4)-2(x4)--|

Bridge
Gb|--------------------|
Db|--------------------|
Ab|--4-----4~----------|
Eb|----4-6----4-6-4----|

Gb|--------------------|
Db|--------------------|
Ab|--4-----4~----------|
Eb|----4-6----4-6-4----|

Gb|--------------------|
Db|--------------------|
Ab|--7-----7~----------|
Eb|----7-9----7-9-7----|

Gb|--------------------|
Db|--------------------|
Ab|--7-----7~----------|
Eb|----7-9----7-9-7----|

Gb|---------------------------|
Db|---------------------------|
Ab|--11-------11~-------------|
Eb|-----11-13-----11-13-13----|

Gb|---------------------------|
Db|---------------------------|
Ab|--11-------11~-------------|
Eb|-----11-13-----11-13-13----|

Gb|----------------------|
Db|----------------------|
Ab|--9------9~-----------|
Eb|----9-11----9-11-9----|

Gb|----------------------|
Db|----------------------|
Ab|--9------9~-----------|
Eb|----9-11----9-11-9----|

Play bridge again then play this...

Gb|----------------------|
Db|----------------------|
Ab|--9------9~-----------|
Eb|----9-11----9-11-9----|

Gb|----------------------|
Db|----------------------|
Ab|--9------9~-----------|
Eb|----9-11----9-11-9----|

Gb|----------------------|
Db|----------------------|
Ab|--9------9~-----------|
Eb|----9-11----9-11-9----|

Gb|----------|
Db|----------|
Ab|----------|
Eb|----9~----|

Chorus 3
Gb|---------------------------------|
Db|---------------------------------|
Ab|--2(x8)-------4(x8)--------------|
Eb|--------2(x8)-------0(x4)-6(x4)--|

Gb|---------------------------------|
Db|---------------------------------|
Ab|--------------4(x8)--------------|
Eb|--4(x8)-0(x8)-------0(x4)-2(x4)--|

"And what are you made of?"
Gb|---------------------------------|
Db|---------------------------------|
Ab|--2(x8)-------4(x8)--------------|
Eb|--------2(x8)-------0(x4)-6(x4)--|

Gb|---------------------------------|
Db|---------------------------------|
Ab|--------------4(x8)--------------|
Eb|--4(x8)-0(x8)-------0(x4)-2(x4)--|

"What are you made of?"
Gb|---------------------------------|
Db|---------------------------------|
Ab|--2(x8)-------4(x8)--------------|
Eb|--------2(x8)-------0(x4)-6(x4)--|

Gb|---------------------------------|
Db|---------------------------------|
Ab|--------------4(x8)--------------|
Eb|--4(x8)-0(x8)-------0(x4)-2(x4)--|

"Flesh and Bone!"
Gb|---------------------------------|
Db|---------------------------------|
Ab|--2(x8)-------4(x8)--------------|
Eb|--------2(x8)-------0(x4)-6(x4)--|

Gb|---------------------------------|
Db|---------------------------------|
Ab|--------------4(x8)--------------|
Eb|--4(x8)-0(x8)-------0(x4)-2(x4)--|

Ending
Gb|--------------|
Db|--------------|
Ab|----2(x16)----|
Eb|--------------|

| /  slide up
| \  slide down
| h  hammer-on
| p  pull-off
| ~  vibrato
| +  harmonic
| x  Mute note
===============================================================================
comments
We did not receive enough feedback on this tab! Please rate:
print report bad tab
1 2 3 4 5
1 comment total.
0 reply
Bassprogman wrote on December 20 2012, 05:36 pm

Beautiful tab bro.

I want to post or [tab]
guest
You may want to rate the tab now too:
select rating
Please do not post tabs as comments. Select "correction" instead!