Oops, an error
Loading. Please wait.

Forget About What I Said Bass Tab

version 1
version 1

Whole song

Interactive

1,463 views 1 this week
no commentswrite comment
1 2 3 4 5
accurate
x 3
add to favorites
launch autoscroll
font size
0
reset
guitar tuner
Tab Pro tools
  • play this tab
  • loop segment
  • change instrument
  • show fretboard
  • metronome
×
Best way to learn
"Forget About What I Said"
Autoscroll
slow
fast
+/-
esc
set tempo
stop
Contributor
rko
I've edited it a bit now

INTRO - bass enters at 0.13
G-3333--------------------|
D------44443333-----------|
A---------------4643434---|
E-----------------------4-|

VERSE x4
G--------------------------------------|
D--------------------------------------|
A-11-111-1-444---------------------(4)-|
E-------------111-22-222-2-444-111-----|

CHORUS
G-------------------------------------|
D-------------------------------------|
A-44444444-66666666-------------------|
E-------------------22222222-22222222-|

G-------------------------------------------|
D-------------------------------------------|
A-----------------66-44-33-99999999-8888888-|
E-66666-9-8-6---44--------------------------|

G----------------------------------|
D----------------------------------|
A-44444444-66666666-----4----4-----|
E-------------------2222-2222-2222-|

G-------------------------------------------|
D-------------------------------------------|
A-----------------66-44-33-99999999-8888888-|
E-66666-9-8-6---44--------------------------|


VERSE 2
G---------------------|
D---------------------|
A-REST----------------|
E------22-222-444-111-|

x3
G--------------------------------------|
D--------------------------------------|
A-11-111-1-444---------------------(4)-|
E-------------111-22-222-2-444-111-----|


Repeat Chorus


BRIDGE 
G-------------
D-------------
A-9~-6~-4~----
E---------6-~-

G-------------------------------------------------------|
D-------------------------------------------------------|
A--------------6-66-66-66-6-----------------------------|
E-2-22-22-22-2--------------4-44-44-44-4444444444444444-|

Repeat Chorus then end on
G-------------------------------------------|
D-------------------------------------------|
A-----------------66-44-33-99999999-8888888-|
E-66666-9-8-6---44--------------------------|

comments
We did not receive enough feedback on this tab! Please rate:
print report bad tab
1 2 3 4 5
I want to post or [tab]
guest
You may want to rate the tab now too:
select rating
Please do not post tabs as comments. Select "correction" instead!