Oops, an error
Loading. Please wait.

Four Winds Bass Tab

version 1
version 1

Whole song

Interactive

306 views 1 this week
no commentswrite comment
1 2 3 4 5
excellent!
x 1
add to favorites
launch autoscroll
font size
0
reset
guitar tuner
Tab Pro tools
  • play this tab
  • loop segment
  • change instrument
  • show fretboard
  • metronome
Autoscroll
slow
fast
+/-
esc
set tempo
stop
Contributor
Difficulty
intermediate
Note: I just took this from the chords and transposed them into bass tab, I am not sure 
if it for sure correct but it how I would/do play.

Into: 0:03-0:16
||```G``````Eb``````Bb````````C````````Bb```````C```````Eb
G|-----------------------------------------------------------------------------|
D|----------11111111--------------------------------------11111111-11111111----|
A|-------------------11111111-33333333-11111111-33333333-----------------------|
E|--33333333-------------------------------------------------------------------|

Verse 1/Verse 2 (0:17-0:43)  Your class, your caste, your country....
||``G`````Eb`````Bb````C``````Bb`````C`````Eb
G|------------------------------------------------------------|
D|--------1-1-1------------------------------1-1-1--1-1-1-----|
A|---------------1-1-1--3-3-3--1-1-1--3-3-3-------------------|
E|--3-3-3-----------------------------------------------------|  x2

Chorus (0:44-1:04)  But when great Satan's gone...
 ||`C`````F`````C`````F``````Eb````Bb`````Eb````Bb````C```````````F
G|--------------------------------------------------------------------------------|
D|--------3-3-3-------3-3-3--1-1-1--------1-1-1---------------------3-3-3-3-3-3---|
A|-3-3-3--------3-3-3---------------1-1-1-------1-1-1--3-3-3-3-3-3----------------|
E|--------------------------------------------------------------------------------|

Interlude (1:05-1:18) Same as intro
||``G````````Eb```````Bb```````C`````````Bb```````C````````Eb
G|-------------------------------------------------------------------------------|
D|-----------11111111----------------------------------------11111111-11111111---|
A|---------------------11111111-33333333-11111111-33333333-----------------------|
E|--33333333---------------------------------------------------------------------|

Verse 3 (1:19-1:31) The Bible's blind, the Torah's deaf, the Qu'ran is mute...
||`G````````Eb```````Bb```````C````````Bb```````C````````Eb
G|-----------------------------------------------------------------------------|
D|----------11111111---------------------------------------11111111-11111111---|
A|-------------------11111111-33333333-11111111-33333333-----------------------|
E|-33333333--------------------------------------------------------------------|

Verse 4( (1:32-1:45) Cast on a school of meditation built to soften the times...
||``G`````Eb````Bb`````C``````Bb`````C`````Eb
G|----------------------------------------------------------|
D|--------1-1-1------------------------------1-1-1--1-1-1---|
A|---------------1-1-1--3-3-3--1-1-1--3-3-3-----------------|
E|--3-3-3---------------------------------------------------|

Chorus(1:46-2:07) And it's the Sum of man,... (Come in at "a heart just can't contain,")
||`````Eb``````Bb``````Eb```````Bb```````C`````````````````F
G|------------------------------------------------------------------------------|
D|-----1111111---------11111111-----------------------------33333333-33333333---|
A|-------------11111111---------11111111-33333333-333333333---------------------|
E|------------------------------------------------------------------------------|

Interlude (2:08-2:19)
||``G````````Eb```````Bb```````C`````````Bb```````C````````Eb
G|-------------------------------------------------------------------------------|
D|-----------11111111----------------------------------------11111111-11111111---|
A|---------------------11111111-33333333-11111111-33333333-----------------------|
E|--33333333---------------------------------------------------------------------|

Verse 5/ Verse 6 (2:20-2:47) Well I went back by rented Cadillac and company jet...
||`G````````Eb```````Bb```````C````````Bb```````C````````Eb
G|-----------------------------------------------------------------------------|
D|----------11111111---------------------------------------11111111-11111111---|
A|-------------------11111111-33333333-11111111-33333333-----------------------|
E|-33333333--------------------------------------------------------------------| x2

Chorus (2:48-3:22) But when great Satan's gone,...
||`C````````F````````C```````F````````Eb```````Bb``````Eb```````Bb
G|--------------------------------------------------------------------------|
D|----------33333333---------33333333-11111111---------11111111-------------|
A|-33333333---------33333333-------------------11111111---------11111111----|
E|--------------------------------------------------------------------------|
|| A``````````````````G````````````````C````````Bb``````Eb````````D
G|----------------------------------------------------------------------------|
D|---------------------------------------------------------11111111-00000000--|
A|-00000000-00000000-------------------33333333-11111111----------------------|
E|--------------------33333333-33333333---------------------------------------|
||`C``````````````````F
G|-----------------------------------------|
D|--------------------33333333-33333333----|
A|-33333333-33333333-----------------------|
E|-----------------------------------------|

Interlude (3:23-3:50)
||``G````````Eb````````Bb```````C```````Bb````````C````````Eb
G|-------------------------------------------------------------------------------|
D|-----------11111111----------------------------------------11111111-11111111---|
A|---------------------11111111-33333333-11111111-33333333-----------------------|
E|--33333333---------------------------------------------------------------------| x2
comments
We did not receive enough feedback on this tab! Please rate:
print report bad tab
1 2 3 4 5
I want to post or [tab]
guest
You may want to rate the tab now too:
select rating
Please do not post tabs as comments. Select "correction" instead!