Oops, an error
Loading. Please wait.

Glamorous Indie Rock N Roll Bass Tab

version 1
version 1

Whole song

Interactive

9,976 views 12 this week
3 commentsread comments
1 2 3 4 5
accurate
x 9
add to favorites
launch autoscroll
font size
0
reset
guitar tuner
Tab Pro tools
  • play this tab
  • loop segment
  • change instrument
  • show fretboard
  • metronome
×
Best way to learn
"Glamorous Indie Rock N Roll"
Autoscroll
slow
fast
+/-
esc
set tempo
stop
Difficulty
intermediate
verse 1
        two of us....            
G|----------------|----------------|----------------|----------------|
D|------1414------|----------------|-----1111-------|----------------|
A|12h14-----141414|----------------|9h11-----111111-|----------------|
E|----------------|12--------------|---------------9|----------------|

G|----------------|----------------|----------------|----------------|
D|----------------|----------------|99999999--------|-------------9\0|
A|7h9-999999------|----------------|----------------|----------------|
E|----------------|----------------|----------------|----------------|

Chorus 1
G|----------------|-----------------|----------------|-----------------------|
D|2-2-2-2-2-2-2-2-|2-2-2-2-2-2-2h4-4|----------------|-----------------------|
A|----------------|-----------------|4-4-4-4-4-2h4-4-|4-4-4-4-4-4---4-4-4-4--|
E|----------------|-----------------|----------------|-----------------------|

G|---------------|----------------|----------------|----------------|
D|---------------|----------------|----------------|----------------|
A|-------/9-9-9-9|----------------|----------------|----------------|
E|2-2-2-2--------|\2-2-2-2-2-2-2-2|/7-7-7-7-7-7-7-7|-7-7-7-7-7-7-7-7|

Repeat verse 1

Bridge 1
G|----------------|----------------|----------------|----------------|
D|----------------|----------------|----------------|----------------|
A|----------------|44444---22222---|----------------|44444---22222---|
E|22222---55555---|----------------|22222---55555---|----------------|

G|----------------|----------------|----------------|-----------12123|
D|44444444--------|----------------|----------------|----1-12424-----|
A|--------00000000|4444444422222222|0000000000000000|2124-4----------|
E|----------------|----------------|----------------|----------------|

break
G|--5let ring-----|----------------|----------------|----------------------|
D|----------------|---7-5-7-5-7-7-5|-0-0-2-2-3-3-2-2|-5-5------------------|
A|----------------|0---------------|----------------|-----5-5-5------------|
E|----------------|----------------|----------------|-----------3-3-3-3-3-5|

G|----------------|----------------|----------------|----------------|
D|----------------|-7-5-7-5-7-7-5-7|-0-0-2-2-3-3-2-2|-5-5------------|
A|-3--3-3-3-35320-|----------------|----------------|-----5-5--------|
E|-----3-3-3------|----------------|----------------|---------3------|

Verse 2
G|----------------|----------------|----------------|----------------|
D|----------------|----1010--------|----------------|---77-----------|
A|----------------|8h10----101010--|----------------|5h7--777--------|
E|----------------|--------------8-|----------------|--------555-----|

G|----------------|---------------|------------------|----------------|
D|------------1212|---------------|------------------|----------------|
A|-------10h12----|121212---------|-8h10-101010101010|------------10\0|
E|----------------|------10-------|------------------|----------------|

chorus 2
G|----------------|-----------------|----------------|----------------|
D|2-2-2-2-2-2-2-2-|2-2-2-2-2-2-2h4-4|----------------|----------------|
A|----------------|-----------------|-4-4-4-4-4-4-4-4|-4-4-4-4-4-4-4h6|
E|----------------|-----------------|----------------|----------------|

G|-----------------|------------------|----------------|------------------------|
D|-----------------|------------------|----------------|------------------------|
A|-------/9-9-9-9-9|--------/9-9-9-9-9|\2-2-2-2-2-2-2-2|/14-14-14-14-14-14-14-14|
E|2-2-2-2----------|\2-2-2-2----------|----------------|------------------------|

G|---------------------|-----------------------|------------------|------------
D|2-2-2-2-2-1h2-2-2-2-2|-2-2-2-2/14-14-14-14-14|------------------|------------
A|---------------------|-----------------------|\4-4-4-4-4-4-4-4-4|/1616161616-
E|---------------------|-----------------------|------------------|------------

  ----------------------|
  ----------------------|
  -16161616161616161616-|
  ----------------------|

G|------------------------|----------------|----------------|----------------
D|------------------------|----------------|----------------|----------------
A|------------------------|----------------|2-2-2-2-2-2-2-2-|/14-14-14-14-14-
E|2-2-2-1-2-1-2-2-2-1-2-1-|2-2-2-2-2-2-2-2-|----------------|----------------

  -----------------|
  -----------------|
  14-14-14-14-14-14|
  -----------------|

outro

G|----------------|----------------|----------------|
D|2-2-2-2-1-1-1-1-|----------------|----------------|
A|----------------|4-4-4-4-2-2-2-2-|----------------|
E|----------------|----------------|-----0let ring--|

just practise and get the timing...enjoy :-)
please rate this tab...
comments
print report bad tab
3 comments total.
0 reply
Thunderbird_Fan wrote on September 23 2009, 06:16 am

you gotta tune your guitar to

but keep the same tab

0 reply
Thunderbird_Fan wrote on September 23 2009, 06:17 am

ok wtf? just drop all strings down half a step

0 reply
rokrdude wrote on April 7 2010, 10:27 am

good except needsto be tuned down 1/2 step

I want to post or [tab]
guest
You may want to rate the tab now too:
select rating
Please do not post tabs as comments. Select "correction" instead!