Oops, an error
Loading. Please wait.

Glamorous Indie Rock N Roll Bass Tab

version 2
version 2

Whole song

Interactive

6,423 views 12 this week
no commentswrite comment
1 2 3 4 5
excellent!
x 4
add to favorites
launch autoscroll
font size
0
reset
guitar tuner
Tab Pro tools
  • play this tab
  • loop segment
  • change instrument
  • show fretboard
  • metronome
×
Best way to learn
"Glamorous Indie Rock N Roll"
Autoscroll
slow
fast
+/-
esc
set tempo
stop
Difficulty
intermediate
verse 1
        two of us....
G|----------------|----------------|----------------|----------------|
D|------1313------|----------------|-----1010-------|----------------|
A|11h13-----131313|----------------|8h10-----101010-|----------------|
E|----------------|11--------------|---------------8|----------------|

G|----------------|----------------|----------------|----------------|
D|----------------|----------------|88888888--------|-------------8\0|
A|6h8-888888------|----------------|----------------|----------------|
E|----------------|----------------|----------------|----------------|

Chorus 1
G|----------------|-----------------|----------------|-----------------------|
D|1-1-1-1-1-1-1-1-|1-1-1-1-1-1-1h3-3|----------------|-----------------------|
A|----------------|-----------------|3-3-3-3-3-1h3-3-|3-3-3-3-3-3---3-3-3-3--|
E|----------------|-----------------|----------------|-----------------------|

G|---------------|----------------|----------------|----------------|
D|---------------|----------------|----------------|----------------|
A|-------/8-8-8-8|----------------|----------------|----------------|
E|1-1-1-1--------|\1-1-1-1-1-1-1-1|/6-6-6-6-6-6-6-6|-6-6-6-6-6-6-6-6|

Repeat verse 1

Bridge 1
G|----------------|----------------|----------------|----------------|
D|----------------|----------------|----------------|----------------|
A|----------------|33333---11111---|----------------|33333---11111---|
E|11111---44444---|----------------|11111---44444---|----------------|

G|----------------|----------------|----------------|-----------01012|
D|33333333--------|----------------|----------------|----0-01313-----|
A|----------------|3333333311111111|----------------|1013-3----------|
E|--------44444444|----------------|4444444444444444|----------------|

break
G|--4let ring-----|----------------|----------------|----------------------|
D|----------------|---6-4-6-4-6-4-6|-----1-1-2-2-1-1|-4-4------------------|
A|----------------|----------------|-4-4------------|-----4-4-4------------|
E|----------------|4---------------|----------------|-----------2-2-2-2-2-4|

G|----------------|----------------|----------------|----------------|
D|----------------|-6-4-6-4-6-6-4-6|-----1-1-2-2-1-1|-4-4------------|
A|-2--2-2-2-2421--|----------------|-4-4------------|-----4-4--------|
E|-----2-2-2----4-|----------------|----------------|---------2------|

Verse 2
G|----------------|----------------|----------------|----------------|
D|----------------|----99----------|----------------|---66-----------|
A|----------------|7h9-----999-----|----------------|4h6--666--------|
E|----------------|--------------7-|----------------|--------444-----|

G|----------------|---------------|------------------|----------------|
D|------------1111|---------------|------------------|----------------|
A|--------9h11----|111111---------|-7h9-999999-------|------------9-\0|
E|----------------|------9--------|------------------|----------------|

chorus 2
G|----------------|-----------------|----------------|----------------|
D|1-1-1-1-1-1-1-1-|1-1-1-1-1-1-1h3-3|----------------|----------------|
A|----------------|-----------------|-3-3-3-3-3-3-3-3|-3-3-3-3-3-3-3h5|
E|----------------|-----------------|----------------|----------------|

G|-----------------|------------------|----------------|------------------------|
D|-----------------|------------------|----------------|------------------------|
A|-------/8-8-8-8-8|--------/8-8-8-8-8|\1-1-1-1-1-1-1-1|/13-13-13-13-13-13-13-13|
E|1-1-1-1----------|\1-1-1-1----------|----------------|------------------------|

G|---------------------|-----------------------|------------------|------------|
D|1-1-1-1-1-0h1-1-1-1-1|-1-1-1-1/13-13-13-13-13|------------------|------------|
A|---------------------|-----------------------|\3-3-3-3-3-3-3-3-3|/1515151515-|
E|---------------------|-----------------------|------------------|------------|

  ----------------------|
  ----------------------|
  -15151515151515151515-|
  ----------------------|

G|------------------------|----------------|----------------|----------------|
D|------------------------|----------------|----------------|----------------|
A|------------------------|----------------|1-1-1-1-1-1-1-1-|/13-13-13-13-13-|
E|1-1-1-0-1-0-1-1-1-0-1-0-|1-1-1-1-1-1-1-1-|----------------|----------------|

  -----------------|
  -----------------|
  13-13-13-13-13-13|
  -----------------|

outro

G|----------------|----------------|----------------|
D|1-1-1-1-0-0-0-0-|----------------|-----1let ring--|
A|----------------|3-3-3-3-1-1-1-1-|----------------|
E|----------------|----------------|----------------|
comments
print report bad tab
I want to post or [tab]
guest
You may want to rate the tab now too:
select rating
Please do not post tabs as comments. Select "correction" instead!