Oops, an error
Loading. Please wait.

Glamorous Indie Rock N Roll Tab

version 2
version 2

Whole song

Interactive

5,264 views 1 this week
1 commentread comment
1 2 3 4 5
please rate
add to favorites
launch autoscroll
font size
0
reset
how to read this tab
guitar tuner
Tab Pro tools
  • play this tab
  • loop segment
  • change instrument
  • show fretboard
  • metronome
×
Best way to learn
"Glamorous Indie Rock N Roll"
Autoscroll
slow
fast
+/-
esc
set tempo
stop
Contributor
Riff 1:

eb|---------------------------------||
bb|-5-5-5-5-4-4-4-4-2-2-2-2-4-4-4-4-||
gb|-4-4-4-4-4-4-4-4-4-4-4-4-4-4-4-4-||
db|---------------------------------|| 2x
ab|---------------------------------||
Eb|---------------------------------||

Riff 2:
eb|---------------------------------|
bb|-5-5-5-5-4-4-4-4-2-2-2-2-4-4-4-4-|
gb|-2-2-2-2-2-2-2-2-2-2-2-2-2-2-2-2-|
db|---------------------------------|
ab|---------------------------------|
Eb|---------------------------------|

Verse 1:

Riff 1
Glamorous
Indie rock'n'roll is what I want
                Riff 2
It's in my soul, it's what I need
                  Riff 1
Indie rock'n'roll, it's time
Two of us
Flipping through a thrift store magazine
                                Riff 2
She plays the drums, I'm on tambourine
                                Riff 1
Bet your, your bottom dollar on me

Chorus 1:
                            E
It's Indie rock'n'roll for me
                            C#m
It's Indie rock'n'roll for me
             F#m7
It's all I need
B    Bsus4 B
It's Indie rock'n'roll for me

Verse 2: 

Riff 1
In a clutch

I'm talking every word for all the boys
                   Riff 2
Electric girls with worn down toys
                         Riff 1
Make it up, break it up, what do you care

Oh what do you care?

F#5       A5             C#5 B5 B5/C#5\B5
I take my twist with a shout
F#5       A5             C#5          B5          gb|--11b--|
A coffee shop with a cause, then I'll freak you out
F#5       A5                   C#5
No sex, no drugs, no life, no love
         B5         A        B*
When it comes to today

    C                      Am
eb|-0-----------------------0-0-0-0-0-0-0-0-0-|
bb|-1-----------------------1-1-0-1-0-1-1-0-1-|
gb|-0-----------------------2-2-2-2-2-2-2-2-2-|
db|-2-----------------------2-2-2-2-2-2-2-2-2-|
ab|-3-----------------------0-0-0-0-0-0-0-0-0-|
Eb|-0-----------------------------------------|

Stay if you wanna love me, stay

   Dm                  G        G7
eb|-1-1-0-1-0-1--------3--3-3----1---1-|
bb|-3-3-3-3-3-3--------3--3-3----0---0-|
gb|-2-2-2-2-2-2--------0--0-0----0---0-|
db|-0-0-0-0-0-0--------0--0-0----0---0-|
ab|-0-0-0-0-0-0--------0--0-0----2---2-|
Eb|--------------------3--3-3----3---3-|

Oh don't be shy, let's cause a scene

    C                 Am
eb|-0-0-0-0-0-0--0-0---0-0-0-0-0-0-0-0-0-|
bb|-1-1-0-1-0-1--0-1---1-1-0-1-0-1-1-0-1-|
gb|-0-0-0-0-0-0--0-0---2-2-2-2-2-2-2-2-2-|
db|-2-2-2-2-2-2--2-2---2-2-2-2-2-2-2-2-2-|
ab|-3-3-3-3-3-3--3-3---0-0-0-0-0-0-0-0-0-|
Eb|-0-0-0-0-0-0--0-0---------------------|

Like lovers do on silver screens

       Dm                            G         G+
eb|-----1--1--1--1----1-0------------3-3-3-3---x-x-x-x-x-x-x-x-x-x-x-x-x-x-x-x-x-x-|
bb|-----3--3--3--3----3-3------------3-3-3-3---4-4-4-4-4-4-4-4-4-4-4-4-4-4-4-4-4-4-|
gb|-----2--2--2--2----2-0------------0-0-0-0---0-0-0-0-0-0-0-0-0-0-0-0-0-0-0-0-0-0-|
db|-----0--0--0--0----0-0------------0-0-0-0---1-1-1-1-1-1-1-1-1-1-1-1-1-1-1-1-1-1-|
ab|-----0--0--0--0----0--------------0-0-0-0---2-2-2-2-2-2-2-2-2-2-2-2-2-2-2-2-2-2-|
Eb|----------------------------------3-3-3-3---3-3-3-3-3-3-3-3-3-3-3-3-3-3-3-3-3-3-|

Let's make it yeah, we'll cause a scene

Chorus 2:

It's Indie rock'n'roll for me

Riff 3:
eb|---------------------------------||
bb|---------------------------------||
gb|-5-5-5-5-4-4-4-4-2-2-2-2-4-4-4-4-||
db|-5-5-5-5-5-5-5-5-5-5-5-5-5-5-5-5-|| 4x
ab|---------------------------------||
Eb|---------------------------------||

It's Indie rock'n'roll for me
It's all I need
It's Indie rock'n'roll for me

E (open)
In the clutch
(Whoooooooo)
                           C#m
I'm talking every word for all the boys
             F#m7
It's all I need (Whoooooooo)
                        B               Bsus4  B
Makin' up, breakin' up, what do you care
                                         (It's Indie rock'n'roll for me)
E (open)
Two of us
(Indie rock'n'roll for me)
                                C#m
Flipping through a thrift store magazine
            F#m7
It's all I need (whooooooo)
                        B          
Makin' up, breakin' up, what do you care
      Bsus4        B        
It's Indie rock'n'roll for me
                                     E
eb|-0-0-0-0-0-0-0-0-0-0-0-0-0-0-0-0--0-|
bb|-5-5-5-5-4-4-4-4-2-2-2-2-4-4-4-4--0-|
gb|-4-4-4-4-4-4-4-4-4-4-4-4-4-4-4-4--1-|
db|-2-2-2-2-2-2-2-2-2-2-2-2-2-2-2-2--2-|
ab|----------------------------------2-|
Eb|----------------------------------0-|

                                    OUUUUW
comments
We did not receive enough feedback on this tab! Please rate:
print report bad tab
1 2 3 4 5
1 comment total.
0 reply
Pelusteriano wrote on October 21 2012, 03:18 am

Submited two times? C´mon!

I want to post or [tab]
guest
You may want to rate the tab now too:
select rating
Please do not post tabs as comments. Select "correction" instead!