Oops, an error
Loading. Please wait.

Human Bass Tab

version 1
version 1

Whole song

Interactive

39,861 views 1 this week
6 commentsread comments
1 2 3 4 5
accurate
x 10
add to favorites
launch autoscroll
font size
0
reset
guitar tuner
Tab Pro tools
  • play this tab
  • loop segment
  • change instrument
  • show fretboard
  • metronome
×
Best way to learn
"Human"
Autoscroll
slow
fast
+/-
esc
set tempo
stop
Contributor
Difficulty
novice
This is the first single form the Killers new album Day and Age "Human"

I'm pretty sure this is right. If it Isn't then it's almost right.

Come in at 1:06
Chorus
          -------------------------------------------------|
          -------------------------------------------------|
          -------5 x8--6-x8-----------------5-x8-----------|
          --6 x8------------6-x8--8-x8--6-x8------8-x8-----|


Verse
         ------------------------------------------------|
         ------------------------------------------------|
         --------5-x8--6-x8------8-x8-10-x8--6-x8--8-x8--|
         --6-x8-------------6-x8-------------------------|


Pre-Chorus
        ------------------------------------------------|
        ------------------------------------------------|
        --------5-x8--6-x8--10-x8--6-x16--8-x16---------|
        --6-x8------------------------------------------|

Chorus x2

Bridge
        ------------------------------------------------|
        ------------------------------------------------|
        --------------8-x8--10-x8--5-x16--8-x16---------|
        --6-x8--8-x8------------------------------------|


Rest

      E---12/1----

Chorus x1

The chorus changes a little.
         ------------------------------------------------|
         ------------------------------------------------|
         --------5-x8--6-x8--------------6-x24-----------|
         --6-x8--------------6-x8--8-x8------------------|

Go back to the normal chorus x1  and end with

E----8/1------
comments
print report bad tab
6 comments total. Showing first comments.
0 reply
guitarboy48 wrote on November 27 2008, 12:37 pm

I forgot to say this, but please rate.

-1 reply
Jocke1995 wrote on January 6 2009, 10:53 am

Yeh mayby it was an idea to write the songs: Order, Riff instead of verse,chorus, Brigde, Haha lol it sucks

-1 reply
Jocke1995 wrote on January 15 2009, 11:58 am

xd

I want to post or [tab]
guest
You may want to rate the tab now too:
select rating
Please do not post tabs as comments. Select "correction" instead!