Oops, an error
Loading. Please wait.

Human Bass Tab

version 2
version 2

Whole song

Interactive

29,263 views 51 this week
3 commentsread comments
1 2 3 4 5
excellent!
x 32
add to favorites
launch autoscroll
font size
0
reset
guitar tuner
Tab Pro tools
  • play this tab
  • loop segment
  • change instrument
  • show fretboard
  • metronome
×
Best way to learn
"Human"
Autoscroll
slow
fast
+/-
esc
set tempo
stop
Contributor
Band: The Killers
Song: Human
Bassist: Mark Stoermer

Current bass tab for Human is good but is a bit vague and misses a fill or two. Easy but 
song to play. As per usual, I'm pretty sure it's 100% correct but if you do find any 
then please leave a comment.

Enjoy and please don't forget to rate!

Will


Intro
(no bass at beginning, come in at 01:03)
G|-----------------|----------------|----------------|----------------|
D|-----------------|----------------|----------------|----------------|
A|-----------------|5-5-5-5-5-5-5-5-|6-6-6-6-6-6-6-6-|----------------|
E|\6-6-6-6-6-6-6-6-|----------------|----------------|6-6-6-6-6-6-6-6-|

G|----------------|------------------------|----------------|----------------|
D|----------------|------------------------|----------------|----------------|
A|8-8-8-8-8-8-8-8-|10-10-10-10-10-10-10-10-|6-6-6-6-6-6-6-6-|8-8-8-8-8-8-8-8-|
E|----------------|------------------------|----------------|----------------|


Verse (01:17)
G|-----------------|----------------|----------------|----------------|
D|-----------------|----------------|----------------|----------------|
A|-----------------|5-5-5-5-5-5-5-5-|6-6-6-6-6-6-6-6-|----------------|
E|\6-6-6-6-6-6-6-6-|----------------|----------------|6-6-6-6-6-6-6-6-|

G|----------------|------------------------|----------------|----------------|
D|----------------|------------------------|----------------|----------------|
A|8-8-8-8-8-8-8-8-|10-10-10-10-10-10-10-10-|6-6-6-6-6-6-6-6-|8-8-8-8-8-8-8-8-|
E|----------------|------------------------|----------------|----------------|

G|----------------|----------------|----------------|------------------------|
D|----------------|----------------|----------------|------------------------|
A|----------------|5-5-5-5-5-5-5-5-|6-6-6-6-6-6-6-6-|10-10-10-10-10-10-10-10-|
E|6-6-6-6-6-6-6-6-|----------------|----------------|------------------------|

G|----------------|----------------|----------------|----------------|
D|----------------|----------------|----------------|----------------|
A|6-6-6-6-6-6-6-6-|6-6-6-6-6-6-6-6-|8-8-8-8-8-8-8-8-|8-8-8-8-8-8-8-8-|
E|----------------|----------------|----------------|----------------|


Chorus 1 (01:46)
G|-----------------|----------------|----------------|----------------|
D|-----------------|----------------|----------------|----------------|
A|-----------------|5-5-5-5-5-5-5-5-|6-6-6-6-6-6-6-6-|----------------|
E|\6-6-6-6-6-6-6-6-|----------------|----------------|6-6-6-6-6-6-6-6-|

G|----------------|------------------------|----------------|----------------|
D|----------------|------------------------|----------------|----------------|
A|8-8-8-8-8-8-8-8-|10-10-10-10-10-10-10-10-|6-6-6-6-6-6-6-6-|8-8-8-8-8-8-8-8-|
E|----------------|------------------------|----------------|----------------|

G|----------------|----------------|------------------------|------------------------|
D|----------------|----------------|------------------------|------------------------|
A|----------------|5-5-5-5-5-5-5-5-|10-10-10-10-10-10-10-10-|10-10-10-10-10-10-10-10-|
E|6-6-6-6-6-6-6-6-|----------------|------------------------|------------------------|

G|----------------|----------------|----------------|----------------|
D|----------------|----------------|----------------|----------------|
A|--------------5-|6-6-6-6-6-6-6-6-|----------------|5-5-5-5-5-5-5-5-|
E|8-8-8-8-8-8-8---|----------------|6-6-6-6-6-6-6-6-|----------------|


Post-Chorus (02:14)
G|----------------|----------------|----------------|------------------------|
D|----------------|----------------|----------------|------------------------|
A|6-6-6-6-6-6-6-6-|8-8-8-8-8-8-8-8-|9-9-9-9-9-9-9-9-|10-10-10-10-10-10-10-10-|
E|----------------|----------------|----------------|------------------------|

G|----------------|----------------|----------------|----------------|
D|----------------|----------------|----------------|----------------|
A|6-6-6-6-6-6-6-6-|6-6-6-6-6-6-6-6-|8-8-8-8-8-8-8-8-|8-8-8-8-8-8-8-8-|
E|----------------|----------------|----------------|----------------|


Chorus 2 (02:29)
(no bass)


Chorus 3 (02:57)
G|-----------------|----------------|----------------|----------------|
D|-----------------|----------------|----------------|----------------|
A|-----------------|5-5-5-5-5-5-5-5-|6-6-6-6-6-6-6-6-|----------------|
E|\6-6-6-6-6-6-6-6-|----------------|----------------|6-6-6-6-6-6-6-6-|

G|----------------|------------------------|----------------|----------------|
D|----------------|------------------------|----------------|----------------|
A|8-8-8-8-8-8-8-8-|10-10-10-10-10-10-10-10-|6-6-6-6-6-6-6-6-|8-8-8-8-8-8-8-8-|
E|----------------|------------------------|----------------|----------------|

G|----------------|----------------|------------------------|------------------------|
D|----------------|----------------|------------------------|------------------------|
A|----------------|5-5-5-5-5-5-5-5-|10-10-10-10-10-10-10-10-|10-10-10-10-10-10-10-10-|
E|6-6-6-6-6-6-6-6-|----------------|------------------------|------------------------|

G|----------------|----------------|----------------|
D|----------------|----------------|----------------|
A|--------------5-|6-6-6-6-6-6-6-6-|6-6-6-6-6-6-6-6-|
E|8-8-8-8-8-8-8---|----------------|----------------|


Outro (03:24)
G|----------------|----------------|----------------|----------------|
D|----------------|----------------|----------------|----------------|
A|----------------|5-5-5-5-5-5-5-5-|6-6-6-6-6-6-6-6-|----------------|
E|6-6-6-6-6-6-6-6-|----------------|----------------|6-6-6-6-6-6-6-6-|

G|----------------|------------------------|----------------|----------------|
D|----------------|------------------------|----------------|----------------|
A|8-8-8-8-8-8-8-8-|10-10-10-10-10-10-10-10-|6-6-6-6-6-6-6-6-|8-8-8-8-8-8-8-8-|
E|----------------|------------------------|----------------|----------------|
comments
print report bad tab
3 comments total.
0 reply
Bassprogman wrote on February 18 2013, 09:58 am

Perfect.

0 reply
David9714 wrote on May 3 2013, 10:28 pm

awesome, great tab! thanks!! cheers!!!

0 reply
rileymolnar wrote on April 8 2014, 12:43 am

very nice!

I want to post or [tab]
guest
You may want to rate the tab now too:
select rating
Please do not post tabs as comments. Select "correction" instead!