Oops, an error
Loading. Please wait.

I Cant Stay Bass Tab

version 4
version 4

Whole song

4,052 views 3 this week
no commentswrite comment
1 2 3 4 5
excellent!
x 12
add to favorites
launch autoscroll
font size
0
reset
guitar tuner
Tab Pro tools
  • play this tab
  • loop segment
  • change instrument
  • show fretboard
  • metronome
×
Best way to learn
"I Cant Stay"
Autoscroll
slow
fast
+/-
esc
set tempo
stop
Difficulty
novice
THE KILLERS - I CAN'T STAY

standard tuning (EADG)

verse

--------------------------------------------------|
--------------------------------------------------|
------------------------------3-33-3-33-----------|
6-66-6-66-3-33-3-33-4-44-4-44-----------1-11-1-11-|

---------------------------------------------------------|
---------------------------------------------------------|
-------------------6-66-6-66---------6-66-6-66-6-66-6-66-|
6-66-3-33-4-44-4-44---------4-44-4-44--------------------|

chorus

------------------------------------------------|
------------------------------------------------|
-----------------------------6-66-6-66----------|
6-66-6-66-1-11-1-11-3-33-3-33---------6-66-6-66-|

------------------------------------------------|
------------------------------------------------|
-------------------3-33-------------------------|
3-33-3-33-4-44-4-44----1-11-6-66-6-66(6-66-6-66-| only in the 2nd chorus

bridge

------------------------------------------------------------------|
------------------------------------------------------------------|
----------4-44---------------4-44--------------8-88-8-88----------|
2-22-2-22-----4-44-2-22-2-22-----4-44-2-22-2-22---------1-11-1-11-|


verse x 1

chorus x 1

verse x 1

chorus x 1

bridge x 1

chorus to the end
comments
print report bad tab
I want to post or [tab]
guest
You may want to rate the tab now too:
select rating
Please do not post tabs as comments. Select "correction" instead!